» » »

Led Zeppelin, All My Love Tabs (ver.3)

Artists:  A B C D E F G H I J K L M N O P Q R S T U V W X Y Z # 

All My Love Tabs (ver.3)

Led Zeppelin Tabs
Rating:
0/5 (0 votes)
All My Love lessons Tabs too difficult? Try these video lessons and learn fast
                E:--0-0-0-0--3-3-3-3--1-1-1~--|--0-0-0-0--3-3-3-3--2-2-2~------------|
B:--1-1-1-1--3-3-3-3--3-3-3~--|--1-1-1-1--3-3-3-3--3-3-3~------------|
G:--2-2-2-2--0-0-0-0--2-2-2~--|--2-2-2-2--0-0-0-0--2-2-2~------------|
D:--2-2-2-2--0-0-0-0--0-0-0~--|--2-2-2-2--0-0-0-0--0-0-0~------------|
A:--0-0-0-0--2-2-2-2----------|--0-0-0-0--2-2-2-2--------------------|
E:-----------3-3-3-3----------|-----------3-3-3-3--------------------|

* = Page does a quick sweep of the same chord (or some such move)

[Fill 1]                 [Fill 2]
e:---------------------|----5---5--7p5-------------------------------|
B:--6b8r6~----6b8r6~---|------5--------5s3--5-3----------------------|
G:---------------------|-7b9-----------------------------------------|
D:---------------------|---------------------------------------------|
A:---------------------|---------------------------------------------|
E:---------------------|---------------------------------------------|

[Fill 3]
e:-----------------------------------------------------------|-------|
B:-15b17---15b17~~----13-15--15b17~~---15--13--15---13h15p13-|--6-8--|
G:-----------------------------------------------------------|-------|
D:-----------------------------------------------------------|-------|
A:-----------------------------------------------------------|-------|
E:-----------------------------------------------------------|-------|

e:------------------------|------------------------------------------|
B:-8b10--8b10--8---6h8p6--|-15b17~--15--13--15--15b17~--15-13h15p13--|
G:------------------------|------------------------------------------|
D:------------------------|------------------------------------------|
A:------------------------|------------------------------------------|
E:------------------------|------------------------------------------|

e:------------------------|------------------------------------------|
B:-13h15p13~~--13h15p13.--|--6-8--8b10--8b10~~~----------------------|
G:------------------------|------------------------------------------|
D:------------------------|------------------------------------------|
A:------------------------|------------------------------------------|
E:------------------------|------------------------------------------|

[Fill 4]                      [Fill 5]
e:----5---5-7p5-----7p5-----|----------------------------------------|
B:------5-------6p5-----6p5-|-------5b7r5---5b7r5--------------------|
G:7b9-----------------------|----7-----------------------------------|
D:--------------------------|--7-------------------------------------|
A:--------------------------|----------------------------------------|
E:--------------------------|----------------------------------------|

[Fill 6]
e:-------------------------------------------------------------------|
B:-15b17~--15-13-15-15b17~17~~--15--13h15p13---13h15p13~-13h15p13~---|
G:-------------------------------------------------------------------|
D:-------------------------------------------------------------------|
A:-------------------------------------------------------------------|
E:-------------------------------------------------------------------|
                        hold bend

e:------------------------|------------------------------------------|
B:--6--8--8b10---8b10~~~--|---15b17~--15--13-15--15b17~---15-13-15---|
G:------------------------|------------------------------------------|
D:------------------------|------------------------------------------|
A:------------------------|------------------------------------------|
E:------------------------|------------------------------------------|

e:-------------------------------------------------------------------|
B:--13h15p13~--13h15p13~----6--8--8b10---8b10~-----------------------|
G:-------------------------------------------------------------------|
D:-------------------------------------------------------------------|
A:-------------------------------------------------------------------|
E:-------------------------------------------------------------------|

[Fill 7]                        [Fill 8]
e:----------------------------|--------------------------------------|
B:----------------------------|--10b12r10~---------------------------|
G:---------5---5--7-7b9--7-5~-|---------------7p5-----7p5-----5~-----|
D:-5---5-7---7----------------|-------------------7~------7~---------|
A:---7------------------------|--------------------------------------|
E:----------------------------|--------------------------------------|


[Fill 9]                           [Fill 10]
e:-----------------5---------------|----------5-----------------------|
B:-------------------8p5--8b10r8---|--------5---8p5--8b10r8-----------|
G:-----5---5-7b9-------------------|--7b9---------------------7-5-----|
D:-5h7---7-------------------------|----------------------------------|
A:---------------------------------|----------------------------------|
E:---------------------------------|----------------------------------|

[Fill 11]
e:-------------------------------------------------------------------|
B:-5-----------------------------------------------------------------|
G:---7-7----7b9--7b9--7b9~~------------------------------------------|
D:-------7-----------------------------------------------------------|
A:-------------------------------------------------------------------|
E:-------------------------------------------------------------------|

Progression:

[Intro] x2

This fill is right before the lyrics begin:

e:-------8.-------7.--------5~--------|
B:---/5-------/5-------/5-------------|
G:------------------------------------|
D:------------------------------------|
A:------------------------------------|
E:------------------------------------|
            
Submit corrections

comments powered by Disqus
↑ Back to top | Led Zeppelin Tabs for All My Love. Lyrics for acoustic guitar and electric guitar. Tablatures and chords are parodies/interpretations of the original songs. You may use it for private study, scholarship, research or language learning purposes only