» » »

New Romantic Tabs (ver.2)

Artists:  A B C D E F G H I J K L M N O P Q R S T U V W X Y Z # 

New Romantic Tabs (ver.2)

Laura Marling
Rating:
4/5 (7 votes)

Hard to play? Try these video lessons and learn fast.
                (Intro)
Soz for posting such a sh*t tab, but no ones attempted this yet so i figured i'd give my 
on the tab and hopefully this'll encourage someone to prove me wrong.


Tuning:EADGBe

Capo : 3rd fret (tabbed in relation to capo)

e|---------------------------------------------------------------------------|
B|-----1----1----1----1----1----1----1----1----3----3----3----3----0----0----|
G|-----0----0----0----0----2----2----2----2----4----4----4----4----0----0----|
D|---------------------------------------------------------------------------|
A|---3----3----3----3----0----0----0----0----2----2----2----2----------------|
E|---------------------------------------------------------------3----3------|

e|--------------------------------2----2----2----2----3----3----3----3-------|
B|--0----0----1----1----1----1----3----3----3----3----3----3----3----3-------|
G|--0----0----2----2----2----2-----------------------------------------------|
D|------------------------------0----0----0----0-----------------------------|
A|----------0----0----0----0-------------------------------------------------|
E|3----3--------------------------------------------3----3----3----3---------|

e|--3----3----3----3-------|
B|--3----3----3----3-------|
G|-------------------------|
D|-------------------------|
A|-------------------------|
E|3----3----3----3---------|
            
Hard to play? Try these video lessons and learn fast. | Correct




comments powered by Disqus
↑ Back to top | Tablatures and chords are parodies/interpretations of the original songs. You may use it for private study, scholarship, research or language learning purposes only