» » »

Laura Marling, New Romantic Tabs (ver.1)

Artists:  A B C D E F G H I J K L M N O P Q R S T U V W X Y Z # 

New Romantic Tabs (ver.1)

Laura Marling Tabs
Rating:
5/5 (20 votes)
New Romantic lessons Tabs too difficult? Try these video lessons and learn fast
                Laura Marling - New Romantic

Capo 2

*note* - The intro is played again for the verse, but with some slight
changes at the end of the verses. Where this happens in the first verse
I've simply put the chords above the lyrics. For the second verse Ive split
it up into the three sections, with the changes noted for each.


Intro/Verse (x3)

e|-----------------------------|-----------------------------|
B|-----1------1------1------1--|-----1------1------1------0--|
G|-----2------2------2------2--|-----2------2------2------0--|
D|-----------------------------|-----------------------------|
A|-----------------------------|-----------------------------|
E|--3------3------3------3-----|--2------2------2------2-----|


e|-----------------------------|-----------------------------|
B|-----3------3------3------3--|-----0------0------0------0--|
G|-----4------4------4------4--|-----0------0------0------0--|
D|-----------------------------|-----------------------------|
A|--2------2------2------2-----|-----------------------------|
E|-----------------------------|--0------0------0------0-----|


e|-----------------------------|-----2------2------2---------|
B|-----1------1------1------1--|-----3------3------3------3--|
G|-----2------2------2------2--|--------------------------0--|
D|-----------------------------|--0------0------0------0-----|
A|--0------0------0------0-----|-----------------------------|
E|-----------------------------|-----------------------------|


e|-----------------------------|-----------------------------|
B|-----3------3------3------3--|-----3------3------3------3--|
G|-----0------0------0------0--|-----0------0------0------0--|
D|-----------------------------|-----------------------------|
A|-----------------------------|-----------------------------|
E|--3------3------3------3-----|--3------3------3------3-----|


Verse

I know I said I loved you but I'm thinking I was wrong, 
I'm the first to admit that I'm still pretty young, 
and I never meant to hurt you when I wrote you ten love songs.
 
but a guy that I could never get 'cause his girlfriend was pretty fit 
and everyone who knew her loved her so. 
and I made you leave her for me and now I'm feeling pretty mean, 

       Bm                           Em                                Am
but my mind has f**ked me over more times than any man could ever know. 

Fill

e|--------2h3-------|
B|------3-----------|
G|----2-------------|
D|--0---------------|
A|------------------|
E|------------------|



Middley Bit (x2)

e|-----------------------------|-----------------------------|
B|-----0------0------0------0--|-----1------1------1------1--|
G|-----0------0------0------0--|-----2------2------2------2--|
D|-----------------------------|-----------------------------|
A|-----------------------------|--0------0------0------0-----|
E|--0------0------0------0-----|-----------------------------|

                                (First time)
e|-----------2-----------------|-----------------------------|
B|--------3-----3--------------|-----3------3------3------3--|
G|-----2-----------2-----2-----|-----0------0------0------0--|
D|--0-----------------0--------|-----------------------------|
A|-----------------------------|-----------------------------|
E|-----------------------------|--3------3------3------3-----|

                                (Second time)
                              e|-----------3-----------------|
                              B|--------0--------------------|
                              G|-----0-----------------------|
                              D|-----------------------------|
                              A|-----------------------------|
                              E|--3--------------------------|


Maybe I should give up, give in, 
give up trying to be thin, 
give up and turn into my mother, 
god knows I love her.


Chorus

(And I'm ...)

e|-----------------------------|-----------------------------|
B|-----------3-----------------|-----------3-----------------|
G|--------4--------------------|--------4--------------------|
D|-----5-----------------------|-----4-----------------------|
A|-----------------------------|--2--------------------------|
E|--3--------------------------|-----------------------------|


e|-----------------------------|-----------2-----------------|
B|-----------1-----------------|--------3--------------------|
G|--------2--------------------|-----2-----------------------|
D|-----2-----------------------|--0--------------------------|
A|--0--------------------------|-----------------------------|
E|-----------------------------|-----------------------------|

  *
e|-----------------------------|-----------------------------|
B|-----3------3------3------3--|-----3------3------3------3--|
G|-----0------0------0------0--|-----4------4------4------4--|
D|-----------------------------|-----------------------------|
A|-----------------------------|--2------2------2------2-----|
E|--3------3------3------3-----|-----------------------------|


e|-----------------------------|-----2------2------2------2--|
B|-----1------1------1------1--|-----3------3------3------3--|
G|-----2------2------2------2--|-----------------------------|
D|-----------------------------|--0------0------0------0-----|
A|--0------0------0------0-----|-----------------------------|
E|-----------------------------|-----------------------------|

  *
e|-----------------------------|-----------------------------|
B|-----3------3------3------3--|-----3------3------3------3--|
G|-----0------0------0------0--|-----4------4------4------4--|
D|-----------------------------|-----------------------------|
A|-----------------------------|--2------2------2------2-----|
E|--3------3------3------3-----|-----------------------------|


e|-----------------------------|-----------2-----------------|
B|-----1------1------1------1--|--------3--------------------|
G|-----2------2------2------2--|-----2-----------------------|
D|-----------------------------|--0--------------------------|
A|--0------0------0------0-----|-----------------------------|
E|-----------------------------|-----------------------------|

And I'm sorry to which ever man should meet my sorry state, 
watch my steady lonesome gait and be aware. 
I would never love a man 'cause love and pain go hand in hand 
and I can't do it again. 

*I'm not sure whether this chord is actually:

e|-----------------------------|
B|-----1------1------1------1--|
G|-----2------2------2------2--|
D|-----------------------------|
A|-----------------------------|
E|--3------3------3------3-----|

But I think the normal G i used sounds better.


Verse

(Play intro with a few changes)

So we stayed up late one night to try and get our problems right, 
but I couldn't get into his head just what was going through my mind, 
and I think he knew where I was going 'cause he put Ryan Adams on


  'he put ryan adams on'
e|-----------2-----------------|
B|--------3-----3--------------|
G|-----2-----------2-----2-----|
D|--0-----------------0--------|
A|-----------------------------|
E|-----------------------------|  

(And then skip the G chord, and go straight to the start of the progression again...)

I think he thinks it makes me weak but it only ever makes me strong. 
I've got this friend who sounds just like him, 
now he's the man I'd leave you for, the man that I just adore like you.


  'now he's the man I'd leave you for, the man that I just adore like
e|-----------------------------|-----------2-----------------|
B|-----------1-----------------|--------3-----3--------------|
G|--------2----(2)-------------|-----2-----------2-----2-----|
D|-----2----------(2)---(2)----|--0-----------------0--------|
A|--0----------------(0)-------|-----------------------------|
E|-----------------------------|-----------------------------|

  you'
e|-----------------------------|-----------------------------|
B|-----3------3------3------3--|-----3------3------3------3--|
G|-----0------0------0------0--|-----0------0------0------0--|
D|-----------------------------|-----------------------------|
A|-----------------------------|-----------------------------|
E|--3------3------3------3-----|--3------3------3------3-----|


 
The same man, he turns to me he said "I've got to tell you how i feel, 
if god could make the perfect girl for me it would be you 
and my god told me not tell her, but how much do you love your fella?" 
I don't know, more everyday. 
not in this new romantic way. 

  'and my god told me not to tell her, but how much do you love your fella?
e|-----------------------------|-----------2-----------------|
B|-----1------1------1------1--|--------3-----3--------------|
G|-----2------2------2------2--|-----2-----------2-----2-----|
D|-----------------------------|--0-----------------0--------|
A|--0------0------0------0-----|-----------------------------|
E|-----------------------------|-----------------------------|

  I don't know, more every day.
e|-----------------------------|-----------0-----------------|
B|-----3------3------3------3--|--------0--------------------|
G|-----0------0------0------0--|-----0-----------------------|
D|-----------------------------|-----------------------------|
A|-----------------------------|-----------------------------|
E|--3------3------3------3-----|--0--------------------------|

  not in this                   new romantic way'
e|-----------------------------|-----2------2------2------2--|
B|-----------1-----------------|-----3------3------3------3--|
G|--------0--------------------|-----------------------------|
D|-----2------------2-----2----|--0------0------0------0-----|
A|--3------------------3-------|-----------------------------|
E|-----------------------------|-----------------------------|


e|-----------------------------|
B|-----3------3------3------3--|
G|-----0------0------0------0--|
D|-----------------------------|
A|-----------------------------|
E|--3------3------3------2-----|



Bridge (x2)

e|-----------------------------|-----------------------------|
B|-----------------------------|-----1------1------1------1--|
G|-----2------2------2------2--|-----2------2------2------2--|
D|-----3------3------3------3--|-----------------------------|
A|-----------------------------|--0------0------0------0-----|
E|--1------1------1------1-----|-----------------------------|

                                (this bar is silent 2nd time through)
e|-----------2-----------------|-----2-----------------3-----|
B|--------3-----3--------------|--3-----3--------------2-----|
G|-----2-----------2-----2-----|-----------2-----2-----------|
D|--0-----------------0--------|--------------0-----0--------|
A|-----------------------------|-----------------------------|
E|-----------------------------|-----------------------------|


I'll always be your first love,
you'll always be my first love.


Chorus

e|-----------------------------|-----------------------------|
B|-----------3-----------------|-----------3-----------------|
G|--------4--------------------|--------4--------------------|
D|-----5-----------------------|-----4-----------------------|
A|-----------------------------|--2--------------------------|
E|--3--------------------------|-----------------------------|

                                                              (x1)
e|-----------------------------|-----2-----------------------|
B|-----------1-----------------|-----3-----------------------|
G|--------2--------------------|-----------------------------|
D|-----2-----------------------|--0--------------------------|
A|--0--------------------------|-----------------------------|
E|-----------------------------|-----------------------------|

  *
e|-----------------------------|-----------------------------|
B|-----3------3------3------3--|-----3------3------3------3--|
G|-----0------0------0------0--|-----4------4------4------4--|
D|-----------------------------|-----------------------------|
A|-----------------------------|--2------2------2------2-----|
E|--3------3------3------3-----|-----------------------------|

                                                              (x3)
e|-----------------------------|-----2------2------2------2--|
B|-----1------1------1------1--|-----3------3------3------3--|
G|-----2------2------2------2--|-----------------------------|
D|-----------------------------|--0------0------0------0-----|
A|--0------0------0------0-----|-----------------------------|
E|-----------------------------|-----------------------------|


But I'm sorry to which ever man should meet my sorry state, 
watch my steady lonesome gait and be aware. 
I would never love a man 'cause love and pain go hand in hand 
and I can't do it again. 
I would never love a man cause I could never hurt a man, not in this new romantic way.

Ending

e|-----------3-3---------------|
B|--------3----------1h0-------|
G|-----0--------------------0--|
D|----------------0---------0--|
A|-----------------------------|
E|--3-----------------------3--|
            

comments powered by Disqus
↑ Back to top | Laura Marling Tabs for New Romantic. Lyrics for acoustic guitar and electric guitar. Tablatures and chords are parodies/interpretations of the original songs. You may use it for private study, scholarship, research or language learning purposes only