» » »

Feelin Tabs (ver.2)

Artists:  A B C D E F G H I J K L M N O P Q R S T U V W X Y Z # 

Feelin Tabs (ver.2)

Las
Rating:
0/5 (0 votes)

Hard to play? Try these video lessons and learn fast.
                Feelin' by The La's.  This is my first tab, so forgive mistakes.

Other tabs on here do not reflect the way Lee Mavers plays this on all the video 
clips I have seen, so this is my
interpretation of how he does it. Probably not that accurate, but it 
might give you a start.

Quite a lot of muting with the right hand, the rythm is simple enough to get.

Standard tuning


Intro: -

 
| A          | A          | A          | A          | E  riff         |
|            |            |            |            |                 |
|-0--X--0--X-|-0--X--0--X-|-0--X--0--X-|-0--X--0--X-|-0---------------|
|-2--X--2--X-|-2--X--2--X-|-2--X--2--X-|-2--X--2--X-|-2---------------|
|-2--X--2--X-|-2--X--2--X-|-2--X--2--X-|-2--X--2--X-|-2-----------7-6-|
|-2--X--2--X-|-2--X--2--X-|-2--X--2--X-|-2--X--2--X-|-2-5-7-5---7-----|
|-0--4--0--4-|-0--4--0--4-|-0--4--0--4-|-0--4--0--4-|-0-------7-------|
|-0--X--0--X-|-0--X--0--X-|-0--X--0--X-|-0--X--0--X-|-0---------------|


Verse/Solo section - just sing the solo like Lee does, ha ha!: -


| A          | A          | A          | A          |
|            |            |            |            |
|-0--X--0--X-|-0--X--0--X-|-0--X--0--X-|-0--X--0--X-|
|-2--X--2--X-|-2--X--2--X-|-2--X--2--X-|-2--X--2--X-|
|-2--X--2--X-|-2--X--2--X-|-2--X--2--X-|-2--X--2--X-|
|-2--X--2--X-|-2--X--2--X-|-2--X--2--X-|-2--X--2--X-|
|-0--4--0--4-|-0--4--0--4-|-0--4--0--4-|-0--4--0--4-|
|-0--X--0--X-|-0--X--0--X-|-0--X--0--X-|-0--X--0--X-|

I woke up with a feelin'   I found me lying on the floor



| Fm         | Fm         | D          | D          |
|            |            |            |            |
|-2--2--2--2-|-2--2--2--2-|-2--2--2--2-|-2--2--2--2-|
|-2--2--2--2-|-2--2--2--2-|-3--3--3--3-|-3--3--3--3-|
|-2--2--2--2-|-2--2--2--2-|-2--2--2--2-|-2--2--2--2-|
|-4--4--4--4-|-4--4--4--4-|-0--0--0--0-|-0--0--0--0-|
|-4--4--4--4-|-4--4--4--4-|-X--X--X--X-|-X--X--X--X-|
|-2--2--2--2-|-2--2--2--2-|-X--X--X--X-|-X--X--X--X-|

Look up at the ceilin'     I must be dreamin' 


| A          | A          | A          | A          |
|            |            |            |            |
|-0--X--0--X-|-0--X--0--X-|-0--X--0--X-|-0--X--0--X-|
|-2--X--2--X-|-2--X--2--X-|-2--X--2--X-|-2--X--2--X-|
|-2--X--2--X-|-2--X--2--X-|-2--X--2--X-|-2--X--2--X-|
|-2--X--2--X-|-2--X--2--X-|-2--X--2--X-|-2--X--2--X-|
|-0--4--0--4-|-0--4--0--4-|-0--4--0--4-|-0--4--0--4-|
|-0--X--0--X-|-0--X--0--X-|-0--X--0--X-|-0--X--0--X-|

When I get that feelin'    Oh my Lord I can't takes no..


Run at the end of the verse: -


| E     C7   | C#7   D7   | Bm7 riff        |
|            |            |                 |
|-X--X--X--X-|-X--X--X--X-|-X---------------|
|-X--X--X--X-|-X--X--X--X-|-X---------------|
|-1--1--3--3-|-4--4--5--5-|-7-----------7-6-|
|-2--2--2--2-|-3--3--4--4-|-7-5-7-5---7-----|
|-2--2--3--3-|-4--4--5--5-|-5-------7-------|
|-X--X--X--X-|-X--X--X--X-|-7---------------|

more


at the end (there are different endings in different verison i have
seen/heard - this is pretty simple - the bass line decends, but i reckon 
the guitar part is simply like this): -


| A     C7   | C#7   D7   | Bm7|
|            |            |    |
|-X--X--X--X-|-X--X--X--X-|-X--|
|-2--2--X--X-|-X--X--X--X-|-X--|
|-2--2--3--3-|-4--4--5--5-|-7--|
|-2--2--2--2-|-3--3--4--4-|-7--|
|-0--0--3--3-|-4--4--5--5-|-5--|
|-X--X--X--X-|-X--X--X--X-|-7--|


Additional lyrics (various slight variations between recordings)

I can't stop that feelin', it just goes on for ever more,
What we believe in, is just a feelin'.
Thank God for that feelin' oh my Lord I can't takes no more

I get the feelin', I am responding to a call,
I am receivin', to give you that feelin'.
Eyes up for that feelin', I could not ask for any more
            
Hard to play? Try these video lessons and learn fast. | Correct




comments powered by Disqus
↑ Back to top | Tablatures and chords are parodies/interpretations of the original songs. You may use it for private study, scholarship, research or language learning purposes only