» » »

Letter To The Unborn Tabs (ver.2)

Artists:  A B C D E F G H I J K L M N O P Q R S T U V W X Y Z # 

Letter To The Unborn Tabs (ver.2)

Lamb Of God
Rating:
0/5 (0 votes)

Hard to play? Try these video lessons and learn fast.
                Lamb of God
Letter to the Unborn
Drop D

I'm not even sure if most of this is right, but here's what at least sounds like it lol.

[------------------------------------------------------]
[------------------------------------------------------]
[------------------------------------------------------]
[------------------------------------------------------]
[------------------------------------------------------]
[-8-0-0-8-0-0-8-0-0-8-0-0-8-0-0------------------------]

[------------------------------------------------------]	riff 1
[------------------------------------------------------]
[------------------------------------------------------]
[------------------------------------------------------]
[------------------------------------------------------]
[-3-5-6-0-3-5-3-5-6-0-3-5-3-5-6-0-3-5------------------]

[------------------------------------------------------]	riff 1 part two
[------------------------------------------------------]	One guitar plays the first part
[-2-4-5-4----------------------------------------------]	second guitar plays this
[-0-2-3-2----Let each ring-----------------------------]
[-0-2-3-2----------------------------------------------]
[-0-2-3-2----------------------------------------------]	

[------------------------------------------------------]	
[------------------------------------------------------]
[------------------------------------------------------]
[------------------------------------------------------]	riff 2
[------------------------------------------------------]
[-0-13-12-0-13-12-0-13-12-0-13-12-0-13-12--------------]

[------------------------------------------------------]
[------------------------------------------------------]
[------------------------------------------------------]
[------------------------------------------------------]	PM when necessary
[-0-000-0-0-00-0-0-00-0-0-0-0--------------------------]
[-0-000-0-0-00-0-0-00-0-0-0-0--------------------------]
    --- -   --     --   -   -

[------------------------------------------------------]
[------------------------------------------------------]
[------------------------------------------------------]	riff 3
[------------------------------------------------------]
[-1p0-1p0-0-1p0-1p0-1-000------------------------------]
[-1p0-1p0-0-1p0-1p0-1-000-\6b~-------------------------]
          -           ---  ^full step


[-------------------------------------------------------]
[-------------------------------------------------------]
[-------------------------------------------------------]
[-------------------------------------------------------]
[-------------------------------------------------------]
[-2222222222222-666666-222222-111111111111-555555-111111]	riff 4
 slight pm.

[------------------------------------------------------]
[------------------------------------------------------]
[------------------------------------------------------]
[------------------------------------------------------]
[-2-2-2-2-2-2-6-6-6-2-2-2-1-1-1-1-1-1-5-5-5-1-1-1------]
[-2-2-2-2-2-2-6-6-6-2-2-2-1-1-1-1-1-1-5-5-5-1-1-1------]
Heavy PM 

[------------------------------------------------------]
[------------------------------------------------------]
[------------------------------------------------------]
[-------------riff 3-----------------------------------]
[------------------------------------------------------]
[------------------------------------------------------]

[------------------------------------------------------]
[------------------------------------------------------]
[---------------solo(figuring out later)---------------]
[------------------------------------------------------]
[------------------------------------------------------]
[------------------------------------------------------]

[------------------------------------------------------]
[------------------------------------------------------]
[------------------------------------------------------]
[-----------1st half of Riff 4-------------------------]
[------------------------------------------------------]
[------------------------------------------------------]

[------------------------------------------------------]
[------------------------------------------------------]
[------------------------------------------------------]
[-1-0-1-0-0-4-0-1-0-0-1-0-0-8-6~-----------------------] Riff 5
[-1-0-1-0-0-4-0-1-0-0-1-0-0-8-6~-----------------------]
[-1-0-1-0-0-4-0-1-0-0-1-0-0-8-6~-----------------------]
    -   - -   -   - -   -

[------------------------------------------------------]
[------------------------------------------------------]
[------------------------------------------------------]
[-1-0-1-0-0-4-0-1-0-0-0-0-0-0-0-0----------------------] Riff 6
[-1-0-1-0-0-4-0-1-0-0-0-0-0-0-0-0----------------------]
[-1-0-1-0-0-4-0-1-0-0-0-0-0-0-0-0----------------------]
    -   - -   -   - - - - - - - -

[---------------------------------------------------]
[---------------------------------------------------]
[---------------------------------------------------]
[---------------------------------------------------]  Riff 7
[-1-1-1-1-1-4-1-0-0-0-0-0-0-0-0-0-------------------]
[-1-1-1-1-1-4-1-0-0-0-0-0-0-0-0-0-------------------]
[-1-1-1-1-1-4-1-0-0-0-0-0-0-0-0-0-------------------]
  - - - - -   -   - - - - - - - -

Outro Riff
[-----------------]
[-----------------]
[-----------------]
[-1------------0--]
[-1-Let-Ring---0--]
[-1------------0--]
            
Hard to play? Try these video lessons and learn fast. | Correct




comments powered by Disqus
↑ Back to top | Tablatures and chords are parodies/interpretations of the original songs. You may use it for private study, scholarship, research or language learning purposes only