>
 >
Beating On Deaths Door

Beating On Deaths Door Guitar Tabs

Lamb Of God - Beating On Deaths Door chords, tabs, tablatures, lyrics

Guitar lessons | Add/correct | Request | Top 50 tabs Artists:  A B C D E F G H I J K L M N O P Q R S T U V W X Y Z 0-9

Beating On Deaths Door Guitar Tabs – Lamb Of God

CD, Sheet music, Poster

Do you like Beating On Deaths Door? Share with your friends now
TabsTabs v2
Beating on Death’s Door – Lamb of God

Tuning: Drop D (D A D G B e)
I’m positive this tab is correct. The only bad thing is the lead guitar
for the first part of the outro is missing, but I think he only plays a 
couple of notes anyway. This song is awesome to play, enjoy!

--INTRO (00:00 – 00:07)--
Guitar 1
e|---------------------------------------------------------------------------|
B|---------------------------------------------------------------------------|
G|---------------------------------------------------------------------------|
D|---------------------------------------------------------------------------|
A|---------------------------------------------------------------------------|
E|--3p0--0-0--0-0--0-0-0-0--0-0-0-3p0--0-0--0-0--0-0-0-0--0-0-0--------------|
         .    .    . . .    . . .      .    .    . . .    . . .
Guitar 2
e|---------------------------------------------------------------------------|
B|---------------------------------------------------------------------------|
G|---------------------------------------------------------------------------|
D|---------------------------------------------------------------------------|
A|--0-----------------------------0------------------------------------------|
E|--0-----------------------------0------------------------------------------|
    .                             .
Guitar 1
e|---------------------------------------------------------------------------|
B|---------------------------------------------------------------------------|
G|---------------------------------------------------------------------------|
D|------------------------------------------------6--6--3--------------------|
A|------------------------------------------------6--6--3--------------------|
E|--3p0--0-0--0-0--0-0-0-0--0-0-0-3p0--0-0--0-0-0-6--6--3--------------------|
         .    .    . . .    . . .      .    . . .                
Guitar 2
e|---------------------------------------------------------------------------|
B|---------------------------------------------------------------------------|
G|---------------------------------------------------------------------------|
D|--0---------------------------------------------6--6--3--------------------|
A|--0---------------------------------------------6--6--3--------------------|
E|--0---------------------------------------------6--6--3--------------------|
             

--VERSE 1 (00:07 – 00:28)--  
e|---------------------------------------------------------------------------|
B|---------------------------------------------------------------------------|
G|---------------------------------------------------------------------------|
D|---------------------------------------------------------------------------|
A|---------------------------------------------------------------------------|
E|--3p0--0-0--0-0--0-0-0-0--0-0-0-3p0--0-0--0-0--0-0-0-0--0-0-0--------------|
         .    .    . . .    . . .      .    .    . . .    . . .           
e|---------------------------------------------------------------------------|
B|---------------------------------------------------------------------------|
G|---------------------------------------------------------------------------|
D|------------------------------------------------2--6--5--3-----------------|
A|------------------------------------------------2--6--5--3-----------------|
E|--3p0--0-0--0-0--0-0-0-0--0-0-0-3p0--0-0--0-0-0-2--6--5--3-----------------|
         .    .    . . .    . . .      .    . . .            
e|---------------------------------------------------------------------------|
B|---------------------------------------------------------------------------|
G|---------------------------------------------------------------------------|
D|---------------------------------------------------------------------------|
A|---------------------------------------------------------------------------|
E|--3p0--0-0--0-0--0-0-0-0--0-0-0-3p0--0-0--0-0--0-0-0-0--0-0-0--------------|
         .    .    . . .    . . .      .    .    . . .    . . .           
e|---------------------------------------------------------------------------|
B|---------------------------------------------------------------------------|
G|---------------------------------------------------------------------------|
D|------------------------------------------------6--6--3--------------------|
A|------------------------------------------------6--6--3--------------------|
E|--3p0--0-0--0-0--0-0-0-0--0-0-0-3p0--0-0--0-0-0-6--6--3--------------------|
         .    .    . . .    . . .      .    . . .      
e|---------------------------------------------------------------------------|
B|---------------------------------------------------------------------------|
G|---------------------------------------------------------------------------|
D|---------------------------------------------------------------------------|
A|---------------------------------------------------------------------------|
E|--3p0--0-0--0-0--0-0-0-0--0-0-0-3p0--0-0--0-0--0-0-0-0--0-0-0--------------|
         .    .    . . .    . . .      .    .    . . .    . . .             
e|---------------------------------------------------------------------------|
B|---------------------------------------------------------------------------|
G|---------------------------------------------------------------------------|
D|-------------------------------------------------------2--6--5--4----------|
A|-------------------------------------3------3-----3----2--6--5--4----------|
E|--3p0--0-3--0-3p0--3p0--0-3--0--3p0--1p0--0-1--0--1p0--2--6--5--4----------|
         .    .           .    .            .    .  


--CHORUS (00:28 – 00:41)—-
e|---------------------------------------------------------------------------|
B|---------------------------------------------------------------------------|
G|---------------------------------------------------------------------------|
D|--5-----------------------------------------4------3-----------------------|
A|--5---------------------------------4*------2------3---3/6-----------------|
E|--5--0-0-0-3-6-5~---0-0-0-3-6-3-0-2-----0-2-2--0-1-1---3/6-----------------|
       . . . . .      . . . . . . . .     . .    . .  
e|---------------------------------------------------------------------------|
B|---------------------------------------------------------------------------|
G|---------------------------------------------------------------------------|
D|--5------------------------------------------------------------------------|
A|--5------------------------------------------------------------------------|
E|--5--0-0-0-3-6-5~---0-0-0-3-6-3-0-1-4-0-1-4-0-1-4-0-1-4-4-8-7-6------------|
       . . . . .      . . . . . . . . . . . . . . . . . . . . . .
e|---------------------------------------------------------------------------|
B|---------------------------------------------------------------------------|
G|---------------------------------------------------------------------------|
D|--5-----------------------------------------4------3-----------------------|
A|--5---------------------------------4*------2------3---3/6-----------------|
E|--5--0-0-0-3-6-5~---0-0-0-3-6-3-0-2-----0-2-2--0-1-1---3/6-----------------|
       . . . . .      . . . . . . . .     . .    . .  
e|---------------------------------------------------------------------------|
B|---------------------------------------------------------------------------|
G|---------------------------------------------------------------------------|
D|--5------------------------------------------------------------------------|
A|--5------------------------------------------------------------------------|
E|--5--0-0-0-3-6-5~---0-0-0-3-6-3-0-1-4-0-1-4-0-1-4-0-1-4-3-6-5-4------------|
       . . . . .      . . . . . . . . . . . . . . . . . . . . . .


--VERSE 2 (00:41 – 01:06)--  
e|---------------------------------------------------------------------------|
B|---------------------------------------------------------------------------|
G|---------------------------------------------------------------------------|
D|---------------------------------------------------------------------------|
A|---------------------------------------------------------------------------|
E|--3p0--0-0--0-0--0-0-0-0--0-0-0-3p0--0-0--0-0--0-0-0-0--0-0-0--------------|
         .    .    . . .    . . .      .    .    . . .    . . .           
e|---------------------------------------------------------------------------|
B|---------------------------------------------------------------------------|
G|---------------------------------------------------------------------------|
D|------------------------------------------------6--6--3--------------------|
A|------------------------------------------------6--6--3--------------------|
E|--3p0--0-0--0-0--0-0-0-0--0-0-0-3p0--0-0--0-0-0-6--6--3--------------------|

e|---------------------------------------------------------------------------|
B|---------------------------------------------------------------------------|
G|---------------------------------------------------------------------------|
D|---------------------------------------------------------------------------|
A|---------------------------------------------------------------------------|
E|--3p0--0-0--0-0--0-0-0-0--0-0-0-3p0--0-0--0-0--0-0-0-0--0-0-0--------------|
         .    .    . . .    . . .      .    .    . . .    . . .           
e|---------------------------------------------------------------------------|
B|---------------------------------------------------------------------------|
G|---------------------------------------------------------------------------|
D|------------------------------------------------2--6--5--3-----------------|
A|------------------------------------------------2--6--5--3-----------------|
E|--3p0--0-0--0-0--0-0-0-0--0-0-0-3p0--0-0--0-0-0-2--6--5--3-----------------|
         .    .    . . .    . . .      .    . . . .  .  .  . 
e|---------------------------------------------------------------------------|
B|---------------------------------------------------------------------------|
G|---------------------------------------------------------------------------|
D|---------------------------------------------------------------------------|
A|---------------------------------------------------------------------------|
E|--3p0--0-0--0-0--0-0-0-0--0-0-0-3p0--0-0--0-0--0-0-0-0--0-0-0--------------|
         .    .    . . .    . . .      .    .    . . .    . . .             
e|---------------------------------------------------------------------------|
B|---------------------------------------------------------------------------|
G|---------------------------------------------------------------------------|
D|------------------------------------------------6--6--3--------------------|
A|------------------------------------------------6--6--3--------------------|
E|--3p0--0-0--0-0--0-0-0-0--0-0-0-3p0--0-0--0-0-0-6--6--3--------------------|
         .    .           .    .            .    .  
e|---------------------------------------------------------------------------|
B|---------------------------------------------------------------------------|
G|---------------------------------------------------------------------------|
D|---------------------------------------------------------------------------|
A|---------------------------------------------------------------------------|
E|--3p0--0-0--0-0--0-0-0-0--0-0-0-3p0--0-0--0-0--0-0-0-0--0-0-0--------------|
         .    .    . . .    . . .      .    .    . . .    . . .   
e|---------------------------------------------------------------------------|
B|---------------------------------------------------------------------------|
G|---------------------------------------------------------------------------|
D|-------------------------------------------------------2--6--5--4----------|
A|-------------------------------------3------3-----3----2--6--5--4----------|
E|--3p0--0-3--0-3p0--3p0--0-3--0--3p0--1p0--0-1--0--1p0--2--6--5--4----------|
         .    .           .    .            .    .    


--REPEAT CHORUS (01:06 – 01:29)--


--2ND CHORUS ENDING (01:29 – 01:33)--
e|---------------------------------------------------------------------------|
B|---------------------------------------------------------------------------|
G|---------------------------------------------------------------------------|
D|--5-----------------------------2--6--5--4--3--7--6--5---------------------|
A|--5-----------------------------2--6--5--4--3--7--6--5---------------------|
E|--5--0-0-0-3-6-5~---0-0-0-3-6-3-2--6--5--4--3--7--6--5---------------------|
       . . . . .      . . . . . .   


--BRIDGE (01:31 – 02:32)--
“All yours now   she’s all yours  all yours now   she’s all yours”
e|---------------------------------------------------------------------------|
B|---------------------------------------------------------------------------|
G|---------------------------------------------------------------------------|
D|---------------------------------------------------------------------------|
A|---------------------------------------------------------------------------|
E|--0-0--0--0-0-0-0-0---0-0--0--0-0-0-0-0--0-0-0--0--0-0-0-------------------|
    . .  .  . . . . .   . .  .  . . . . .  . . .  .  . . .
e|---------------------------------------------------------------------------|
B|---------------------------------------------------------------------------|
G|---------------------------------------------------------------------------|
D|----------------------------------------------------------------------[X2]-|
A|---------------------------------------------------------------------------|
E|--0-0--0--0-0-0-0-0---0-0--0--0-0-0-0-0--0-0-0--0--0-0-0-------------------|
    . .  .  . . . . .   . .  .  . . . . .  . . .  .  . . .
e|---------------------------------------------------------------------------|
B|---------------------------------------------------------------------------|
G|---------------------------------------------------------------------------|
D|---------------------------------------------------------------------------|
A|------3---3--------3---3--------3---3--------3---3-------------------------|
E|--0-0-1p0-1p0--0-0-1p0-1p0--0-0-1p0-1p0--0-0-1p0-1p0-----------------------|
    . .          . .          . .          . .
e|---------------------------------------------------------------------------|
B|---------------------------------------------------------------------------|
G|---------------------------------------------------------------------------|
D|---------------------------------------------------------------------------|
A|------2---2--------2---2--------2---2--------2---2-------------------------|
E|--0-0-1p0-1p0--0-0-1p0-1p0--0-0-1p0-1p0--0-0-1p0-1p0-----------------------|
    . .          . .          . .          . .
e|---------------------------------------------------------------------------|
B|---------------------------------------------------------------------------|
G|---------------------------------------------------------------------------|
D|---------------------------------------------------------------------------|
A|---------------------------------------------------------------------------|
E|--0-0--0--0-0-0-0-0---0-0--0--0-0-0-0-0--0-0-0--0--0-0-0-------------------|
    . .  .  . . . . .   . .  .  . . . . .  . . .  .  . . .
e|---------------------------------------------------------------------------|
B|---------------------------------------------------------------------------|
G|---------------------------------------------------------------------------|
D|---------------------------------------------------------------------------|
A|---------------------------------------------------------------------------|
E|--0-0--0--0-0-0-0-0---0-0--0--0-0-0-0-0--0-0-0--0--0-0-0-------------------|
    . .  .  . . . . .   . .  .  . . . . .  . . .  .  . . .
e|---------------------------------------------------------------------------|
B|---------------------------------------------------------------------------|
G|---------------------------------------------------------------------------|
D|---------------------------------------------------------------------------|
A|------3---3--------3---3--------3---3--------3---3-------------------------|
E|--0-0-1p0-1p0--0-0-1p0-1p0--0-0-1p0-1p0--0-0-1p0-1p0-----------------------|
    . .          . .          . .          . .
e|---------------------------------------------------------------------------|
B|---------------------------------------------------------------------------|
G|------------------------------------------->>>>----------------------------|
D|--------------------------------7--7------->>>>----------------------------|
A|------2---2--------2---2--------6--6------->>>>----------------------------|
E|--0-0-1p0-1p0--0-0-1p0-1p0--0-0-4--4--0-0----------------------------------|
    . .          . .          . .       . .
“There’s no shoulder left to cry wolf on…”
e|---------------------------------------------------------------------------|
B|---------------------------------------------------------------------------|
G|---------------------------------------------------------------------------|
D|----------------------------------------------------------------------[X4]-|
A|---------------------------------------------------------------------------|
E|--0-0-6--6--0-0-6--6--0-0-6--6--0-0-6--6--0-0-0--0--0-0--------------------|
    . .       . .       . .       . .       . . .  .  . .
“No one cares”
e|---------------------------------------------------------------------------|
B|---------------------------------------------------------------------------|
G|-----8--8-----8--8-----8--8-----8/9----------------------------------------|
D|--0--6--6--0--6--6--0--6--6--0--6/7--0--0--0--0-----------------------[X3]-|
A|--0--6--6--0--6--6--0--6--6--0--6/7--0--0--0--0----------------------------|
E|--0--6--6--0--6--6--0--6--6--0--6/7--0--0--0--0----------------------------|
    .        .        .        .       .  .  .  .  
e|---------------------------------------------------------------------------|
B|---------------------------------------------------------------------------|
G|-----8--8-----8--8-----8--8-----8/9----------------------------------------|
D|--0--6--6--0--6--6--0--6--6--0--6/7--2--6--5--4----------------------------|
A|--0--6--6--0--6--6--0--6--6--0--6/7--2--6--5--4----------------------------|
E|--0--6--6--0--6--6--0--6--6--0--6/7--2--6--5--4----------------------------|
    .        .        .        .       


--Breakdown (02:32 – 02:38)—
e|---------------------------------------------------------------------------|
B|---------------------------------------------------------------------------|
G|----------------------------------------------------------------------->>>-|
D|----------------------------------------------------------------(drums)>>>-|
A|----------------------------------------------------------------------->>>-|
E|--3p0--0-0--0-0--0-0-0-0--0-0-0-3p0--0-0--0-0--0-0-0-0--0-0-0--0------->>>-|
         .    .    . . .    . . .      .    .    . . .    . . .  .


--REPEAT VERSE AND CHORUS (02:38 – 03:30)—


--OUTRO (03:30 – END)--
e|---------------------------------------------------------------------------|
B|---------------------------------------------------------------------------|
G|---------------------------------------------------------------------------|
D|---------------------------------------------------------------------------|
A|---------------------------------------------------------------------------|
E|--0-0-0--0--0-0-0--0--0-0-0--0--0-0-0--0--0-0-0--0--0-0-0--0--0-0-0--0-----|
    . .       . .       . .       . .       . .       . .       . .  
e|---------------------------------------------------------------------------|
B|---------------------------------------------------------------------------|
G|---------------------------------------------------------------------------|
D|---------6--5--4------------------------------------------------------[X2]-|
A|------2--6--5--4-----------------------------------------------------------|
E|--0-0-2--6--5--4-----------------------------------------------------------|
    . . .  
(Solo guitar is pretty hard to hear at this part)
e|---------------------------------------------------------------------------|
B|---------------------------------------------------------------------------|
G|---------------------------------------------------------------------------|
D|---------------------------------------------------------------------------|
A|---------------------------------------------------------------------------|
E|--0-0-1--1--0-0-1--1--0-0-1--1--0-0-1--1--0-0-0--0--0-0-0--0--0-0-0--0-----|
    . .       . .       . .       . .       . .       . .       . . 
e|---------------------------------------------------------------------------|
B|---------------------------------------------------------------------------|
G|---------------------------------------------------------------------------|
D|---------6--5--4------------------------------------------------------[X3]-|
A|------2--6--5--4-----------------------------------------------------------|
E|--0-0-2--6--5--4-----------------------------------------------------------|
    . . .   
e|---------------------------------------------------------------------------|
B|---------------------------------------------------------------------------|
G|---------------------------------------------------------------------------|
D|---------------------------------------------------------------------------|
A|---------------------------------------------------------------------------|
E|--0-0-1--1--0-0-1--1--0-0-1--1--0-0-1--1--0-0-0--0--0-0-0--0--0-0-0--0-----|
    . .       . .       . .       . .       . .       . .       . . 
e|---------------------------------------------------------------------------|
B|---------------------------------------------------------------------------|
G|---------------------------------------------------------------------------|
D|---------6--5--4-----------------------------------------------------------|
A|------2--6--5--4-----------------------------------------------------------|
E|--0-0-2--6--5--4-----------------------------------------------------------|
    . . .  .  .  .
Guitar 1
e|---------------------------------------------------------------------------|
B|---------------------------------------------------------------------------|
G|---------------------------------------------------------------------------|
D|---------------------------------------------------------------------------|
A|---------------------------------------------------------------------------|
E|--0-0-0--0--0-0-0--0--0-0-0--0--0-0-0--0--0-0-0--0--0-0-0--0--0-0-0--0-----|
    . . .  .  . . .  .  . . .  .  . . .  .  . . .  .  . . .  .  . . .  .
e|---------------------------------------------------------------------------|
B|---------------------------------------------------------------------------|
G|---------------------------------------------------------------------------|
D|---------6--5--4------------------------------------------------------[X4]-|
A|------2--6--5--4-----------------------------------------------------------|
E|--0-0-2--6--5--4-----------------------------------------------------------|
    . . .  .  .  .
Guitar 2
e|---------------------------------------------------------------------------|
B|-------------------------------------3~------------------------------------|
G|---9~---8~---4~---3~-------------------------------------------------------|
D|-----------------------5~---4~---2~----------------------------------------|
A|---------------------------------------------------------------------------|
E|---------------------------------------------------------------------------|

e|---------------------------------------------------------------------------|
B|-------------------------------------3~------------------------------------|
G|--/9~---8~---4~---3~-------------------------------------------------------|
D|-----------------------5~---4~---2~----------------------------------------|
A|---------------------------------------------------------------------------|
E|---------------------------------------------------------------------------|

e|---------------------------------------------------------------------------|
B|-------------------------------------3~------------------------------------|
G|--/9~---8~---4~---3~-------------------------------------------------------|
D|-----------------------5~---4~---2~----------------------------------------|
A|---------------------------------------------------------------------------|
E|---------------------------------------------------------------------------|

e|-----------------------3*---2~----/7~---9p7--6~----------------------------|
B|---------------------------------------------------------------------------|
G|--/9~---8~---4~---3~-------------------------------------------------------|
D|---------------------------------------------------------------------------|
A|---------------------------------------------------------------------------|
E|---------------------------------------------------------------------------|

| /  slide up
| \  slide down
| h  hammer-on
| p  pull-off
| ~  vibrato
| *  harmonic
| .  palm mute





Comments


Popular Lamb Of God tabs & chords
Ashes Of The Wake 3 Bass Tabs
More Time To Kill Bass Tabs
Requiem Bass Tabs
Terror And Hubris In The House Of Frank Pollard Bass Tabs
Another Nail For Your Coffin Tabs
Fake Messiah Tabs
Ghost Walking Intro 1 Tabs
Odhgabfe 1 Tabs
Reclamation Tabs
Redneck 1 Tabs


Song lyrics



↑ Back to top | Tablatures and chords are parodies/interpretations of the original songs. You may use it for private study, scholarship, research or language learning purposes only
© 2014 AZChords.com Contact us | Privacy policy | DMCA | Add/correct tabs | Request tabs | Top 50 tabs