>
 >
As The Palaces Burn 1

As The Palaces Burn 1 Guitar Tabs

Lamb Of God - As The Palaces Burn 1 chords, tabs, tablatures, lyrics

Guitar lessons | Add/correct | Request | Top 50 tabs Artists:  A B C D E F G H I J K L M N O P Q R S T U V W X Y Z 0-9

As The Palaces Burn 1 Guitar Tabs – Lamb Of God

CD, Sheet music, Poster

Do you like As The Palaces Burn 1? Share with your friends now
Bass TabsTabsTabs v2
Band:  Lamb of God

Copyright (c)  Prosthetic Records 2003
Version 1.0 - 9/24/03

Send questions, comments and corrections to:
                (remove NOSPAM to e-mail)

.  - palm mute           /  - slide up to
\  - slide down to       ~  - vibrato
h  - hammer on           b  - Bend
p  - pull off            Suffixes for bend
t  - tap                 f  - full bend    h - half bend
ph - pinched harmonic    q  - quarter bend t - tap bend
*  - see comment         ^  - Hold bend    r release bend
x  - Staccato            ~  - vibrato bend
,  - slight palm mute    () - ghost note, sustained note
"  - tremolo note        <> - Trill

Drop D - D A D G B E


Riff 1 - First Verse
0:00-0:27

A|-5-----5-----5-6-3-5---6-----6-----3-----3---|
D|---0-0---0-0---------0---0-0---0-0---0-0---0-|
 pm  . .   . .         .   . .   . .   . .   .

A|-5-----5-----5-6-3-5---6-----6-----3-----3~--|
D|---0-0---0-0---------0---0-0---0-0---0-0-----|
     . .   . .         .   . .   . .   . .

A|-5-----5-----5-6-3-5---6-----6-----3-----3---|
D|---0-0---0-0---------0---0-0---0-0---0-0---0-|
     . .   . .         .   . .   . .   . .   .

d|-------------------------------------5-----------|
A|-------5---6-------3-5-6-------6-5-3---6-5-------|
D|-5-555---5---6-666-------6-666-------------6-5-3-|
   . ...   .   . ...       . ...             . . .


Chorus
0:27-0:42

e|-----------------------------------------|
B|-----------------------------------------|
G|-----------------------------------------|
d|---------4-------------------0-3-2-------|
A|------/6-------/3-5--------1-------------|
D|-0--0-------0----------0-4---------2-0-2-|
      .       .          . . . .     . . .

e|-----------------------------------------|
B|-----------------------------------------|
G|--------------------------------ph-------|
d|---------4--------------ph--ph--4--------|
A|------/6-------/3-5-----5---6------------|
D|-0--0-------0-------0-0---0---0----1-1-1-|
      .       .       . .  .    .    . . .


Riff 2
0:42-0:57
Underneath the solo

e|--------------------------------------------------|
B|--------------------------------------------------|
G|---------1p0--------2p1---------1p0---------------|
d|---------1p0--------2p1---------1p0-------8-8---7-|
A|------------------------------------------6-6---5-|
D|-000-000-----000-000----000-000-----000-0----0----|
   ... ...     ... ...    ... ...     ... .    .

During the drum fill towards the end of the solo
e|-----------------|
B|-----------------|
G|-----------------|
d|-----3-2-----8-8-|
A|-----1-0-----6-6-|
D|-000-----000-----|


Solo
0:42-0:57

e|-------------13-12-------|-15-14-17-15-18-17-15-14-|
B|----------13-------16-15-|-------------------------|
G|-------14----------------|-------------------------|
d|-------------------------|-------------------------|
A|-12-13-------------------|-------------------------|
D|-------------------------|-------------------------|

                    *
e|-------18--17---15-17----|-15-14---14^------12-15--|
B|-16-15-------------------|-------------------------|
G|-------------------------|-------------------------|
d|-------------------------|-------------------------|
A|-------------------------|-------------------------|
D|-------------------------|-------------------------|
* There is a grace note at the 15th fret, just before 
  the 17th.
                            *
e|------------------------|--------------------------|
B|-16-15-16~--------------|--------------------------|
G|------------------------|-14-12-10-101210----------|
d|------------------------|----------------14-12-----|
A|------------------------|--------------------------|
D|------------------------|--------------------------|
                                           .. ..
* Harmony starts here, one fifth below what is written.  I'm not
  sure if there are two guitar parts or a just a pitch shifter.

e|-------------------------|-------------------------|
B|----------13-13-12-10-12-|-10-------------11-12-14-|
G|---101214----------------|----13-12----13----------|
d|-------------------------|----------14-------------|
A|-------------------------|-------------------------|
D|-------------------------|-------------------------|

e|-------------------------|-------------------------|
B|-15~---------17~---------|-18~---------------------|
G|-------------------------|-------------------------|
d|-------------------------|-------------------------|
A|-------------------------|-------------------------|
D|-------------------------|-------------------------|


Riff 3 - Second Verse
0:57-1:10

e|-------------------------|-------------------------|
B|-------------------------|-------------------------|
G|-------------------------|-------------------------|
d|-------------------------|-------------------ph----|
A|-------------------------|-------------------6~----|
D|-0-0-0-1p0-0-000-0-6p4-0-|-0-000-8p7-0-0-000-------|
   . . .   . . ... .         . ...       . ...        


Riff 4
1:11-1:25

D|-0000000011113344-|-0000000011114433-|


Ending
2:09-End

e|-----------------------------------------|
B|-----------------------------------------|
G|-----------------------------------------|
d|---------4-------------------------------|
A|------/6-------/3-5----------------------|
D|-0--0-------0----------0-/5-6----1-1-1-1-|
      .       .          .         . . . .

e|-----------------------------------------|
B|-----------------------------------------|
G|-----------------------------------------|
d|---------4-------------------------------|
A|------/6-------/3-5----------------------|
D|-0--0-------0----------0-/5-6----0-/3----|
      .       .          .         .





Comments


Popular Lamb Of God tabs & chords
Ashes Of The Wake 2 Bass Tabs
Odhgabfe Bass Tabs
Laid To Rest Drum Tabs
A Warning Tabs
Barbarosa Tabs
Black Label 2 Tabs
Descending 1 Tabs
Letter To The Unborn 1 Tabs
Omerta 5 Tabs
Vigil 2 Tabs


Song lyrics



↑ Back to top | Tablatures and chords are parodies/interpretations of the original songs. You may use it for private study, scholarship, research or language learning purposes only
© 2014 AZChords.com Contact us | Privacy policy | DMCA | Add/correct tabs | Request tabs | Top 50 tabs