>
 >
Owen Meaney

Owen Meaney Bass Tabs

Lagwagon - Owen Meaney chords, tabs, tablatures, lyrics

Guitar lessons | Add/correct | Request | Top 50 tabs Artists:  A B C D E F G H I J K L M N O P Q R S T U V W X Y Z 0-9

Owen Meaney Bass Tabs – Lagwagon

CD, Sheet music, Poster

Do you like Owen Meaney? Share with your friends now
Bass TabsTabs
Band: Lagwagon

The rhythm here is a bit hard, so listen to the song for
timing and stuff.

INTRO

G:---------------------------------------------------------------
D:---------------------------------------------------------------
A:-----------------------------------------0-0-0-0---0-0-0-0-----
E:-3-------0-3-------0-3-------0-3-------33----------------------

G:---------------------------------------------------------------
D:---------------------------------------------------------------
A:-0-0-0-0---0-0-0-0---------------------------------------------
E:---------------------3--5--7---3--5--7---3--5--7---3--5--7-----

G:---------------------------------------------------------------
D:---------------------------------------------------------------
A:-0--0--0---0--0--0---0--0--0---0--0--0-------------------------
E:----------------------------------------22222222222------------

G:---------------------------------------------------------------
D:---------------00000000000-------------------------------------
A:------------------------------222222-32323232------------------
E:-33333333333-----------------------------------22222222222-----

G:---------------------------------------------------------------
D:---------------00000000000-------------------------------------
A:------------------------------222222-33333333------------------
E:-33333333333---------------------------------------------------

G:---------------------------------------------------------------
D:---------------------------------------------------------------
A:----------222-333-5----------222-333-5--0-000000-44-55-7-------
E:-3-333333-----------3-333333-----------------------------------

G:---------------------------------------------------------------
D:---------------------------------------------------------------
A:-0-000000-44-55-7----------222-333-5----------222-333-5--------
E:------------------3-333333-----------3-333333------------------

G:---------------------------------------------------------------
D:---------------------------------------------------------------
A:-0-000000-44-55-7--0-000000-777-555-4--------------------------
E:---------------------------------------2--2--2--2--2--2--------

G:---------------------------------------------------------------
D:-------------------0000000-0000000-0000000---------------------
A:-------------------------------------------23232323------------
E:-3--3--3--3--3--3---------3-------3-------3--------------------

G:---------------------------------------------------------------
D:-------------------------------------00000000000000------------
A:---------------------------------------------------------------
E:-2--2--2--2--2--2--3--3--3--3--3--3----------------------------

G:---------------------------------------------------------------
D:---------------------------------------------------------------
A:-22222222-00000000----------222-333-5-0-000000-444-555-7-------
E:-------------------3-333333------------------------------------

G:---------------------------------------------------------------
D:---------------------------------------------------------------
A:----------222-333-5-0-000000-444-555-7-------------------------
E:-3-333333------------------------------------------------------

VERSES 1,2 & 3

G:---------------------------------------------------------------
D:-------0000000000----------------------------------------------
A:---------------------------------------------------------------
E:------------------2222222222--------------------3333333333-----

G:---------------------------------------------------------------
D:------------------------------------0000000000-----------------
A:-------------------------00000---------------------------------
E:-------44444---------------------------------------------------

G:---------------------------------------------------------------
D:---------------------------------------------------------------
A:---------------------------------------------------------------
E:------------2222222222--------------------3333333333-----------

G:---------------------------------------------------------------
D:----------------------------------------0000000000-------------
A:-----------------------00000-----------------------------------
E:-----------44444-----------------------------------------------

G:---------------------------------------------------------------
D:---------------------------------------------------------------
A:---------------------------------------------------------------
E:------------2222222222-----------------3333333333--------------

G:---------------------------------------------------------------
D:---------------------------------------------------------------
A:--------------------------00000--------------------------------
E:----------44444------------------------------------------------

CHORUSY PART

G:---------------------------------------------------------------
D:---------------------------------------------------------------
A:-3-------------------------------------------------------------
E:------------3---------------0----------------------------------

G:---------------------------------------------------------------
D:-------0-------------------------------------------000000------
A:---------------------------------------------------------------
E:----------------------2---------3--0---------------------------


G:---------------------------------------------------------------
D:-000000-000000-000000------------------------------------------
A:---------------------------------------------------------------
E:---------------------------------------------------------------

VERSES 4 & 5 SAME AS 1,2,3 EXCEPT ALL #F's ARE D:--4----

CHORUSY PART

OUTRO

G:---------------------------------------------------------------
D:------------------------------------0000000-0000000-0000000----
A:---------------------------------------------------------------
E:-2--2--2--2--2--2--3--3--3--3--3--3----------------------------

G:---------------------------------------------------------------
D:---------------------------------------------00000000000000----
A:-23232323------------------------------------------------------
E:----------2--2--2--2--2--2--3--3--3--3--3--3-------------------

G:---------------------------------------------------------------
D:---------------------------------------------------------------
A:-22222222-00000000----------222-333-5----------222-333-5-------
E:-------------------3-333333-----------3-333333-----------------

G:---------------------------------------------------------------
D:---------------------------------------------------------------
A:-0-000000-444-555-7-0-000000-444-555-7-----2-3-3-000-4-5-7-----
E:---------------------------------------333---------------------

G:---------------------------------------------------------------
D:-0000000-0000000-0000000--0------------------------------------
A:---------------------------------------------------------------
E:---------------------------------------------------------------


oly





Comments


Popular Lagwagon tabs & chords
Rifle Bass Tabs
Sick Bass Tabs
Weak Bass Tabs
Falling Apart Chords
Love Story Chords
Alien 8 1 Tabs
Billionaire Tabs
Discords Tabs
Mister Bap Live Tabs
Ride The Snake Tabs


Song lyrics



↑ Back to top | Tablatures and chords are parodies/interpretations of the original songs. You may use it for private study, scholarship, research or language learning purposes only
© 2014 AZChords.com Contact us | Privacy policy | DMCA | Add/correct tabs | Request tabs | Top 50 tabs