>
 >
After You My Friend

After You My Friend Guitar Tabs

Lagwagon - After You My Friend chords, tabs, tablatures, lyrics

Guitar lessons | Add/correct | Request | Top 50 tabs Artists:  A B C D E F G H I J K L M N O P Q R S T U V W X Y Z 0-9

After You My Friend Guitar Tabs – Lagwagon

CD, Sheet music, Poster

Do you like After You My Friend? Share with your friends now
Bass TabsChordsTabsTabs v2
-----------------------------------------------------------------------------
-----------------------------------------------------------------------------

Intro 1/2 (gtr 1 only):
e-|----------------------
B-|-----------PM---------
G-|-4-4-4-4---4--4-4-4-4-
D-|-4-4-4-4---4--4-4-4-4-
A-|-2-2-2-2---2--2-2-2-2-
E-|----------------------

Intro 2/2 (gtr 1):
e-|-----------------------------
B-|-PM-----------PM-----------PM
G-|-4--4-4-4-4---4--4-4-4-4---4-
D-|-4--4-4-4-4---4--4-4-4-4---4-
A-|-2--2-2-2-2---2--2-2-2-2---2-
E-|-----------------------------

Intro 2/2 (gtr 2):
e-|-----------------------------
B-|--------------PM-----------PM
G-|-4--8-8-8-8---8--8-8-8-8---8-
D-|-x-x-x-x-x---x--x-x-x-x---x-
A-|-2--6-6-6-6---6--6-6-6-6---6- 
E-|-----------------------------

Verse:
"Here he is..."
e-|--------------------------------------------------------------------------
B-|-----------PM-------------------------------------------------------------
G-|-4-4-4-4---4------------PM-----------PM-----------PM-----------PM-4-4-4-4-
D-|-4-4-4-4---4--4-4-4-4---4--6-6-6-6---6--4-4-4-4---4--2-2-2-2---2--4-4-4-4-
A-|-2-2-2-2---2--4-4-4-4---4--6-6-6-6---6--4-4-4-4---4--2-2-2-2---2--2-2-2-2-
E-|--------------2-2-2-2---2--4-4-4-4---4--2-2-2-2---2--0-0-0-0---0----------

e-|-------------------|
B-|-PM-----------PM---|
G-|-4--6-6-6-6---6----|
D-|-4--6-6-6-6---6--4-|
A-|-2--4-4-4-4---4--4-|
E-|-----------------2-|

"Indiscrete, in his retreat..."
e-|-------------------------------------------------------------------------
B-|-------------------------------------------------------------------------
G-|-4-4-4-4-4-4-4-4-4-4-4-4-------------------------------------4-4-4-4-4-4-
D-|-4-4-4-4-4-4-4-4-4-4-4-4-6-6-6-6-6-6-4-4-4-4-4-4-2-2-2-2-2-2-4-4-4-4-4-4-
A-|-2-2-2-2-2-2-1-1-1-1-1-1-6-6-6-6-6-6-4-4-4-4-4-4-2-2-2-2-2-2-2-2-2-2-2-2-
E-|-------------------------4-4-4-4-4-4-2-2-2-2-2-2-0-0-0-0-0-0-------------

e-|-------------------------
B-|-------------------------
G-|-6-6-6-6-6-6-------------
D-|-6-6-6-6-6-6-4-4-4-4-4-4-
A-|-4-4-4-4-4-4-4-4-4-4-4-4-
E-|-------------2-2-2-2-2-2-

e-|-------------------------------------------------------------------------
B-|-------------------------------------------------------------------------
G-|-4-4-4-4-4-4-4-4-4-4-4-4-------------------------9-9-9-9-9-9-4-4-4-4-4-4-
D-|-4-4-4-4-4-4-4-4-4-4-4-4-6-6-6-6-6-6-4-4-4-4-4-4-9-9-9-9-9-9-4-4-4-4-4-4-
A-|-2-2-2-2-2-2-1-1-1-1-1-1-6-6-6-6-6-6-4-4-4-4-4-4-7-7-7-7-7-7-2-2-2-2-2-2-
E-|-------------------------4-4-4-4-4-4-2-2-2-2-2-2-------------------------

e-|-------------------------------------------------
B-|-------------------------------------------------
G-|-6-6-6-6-6-6-------------------------------------
D-|-6-6-6-6-6-6-4-4-4-4-4-4-2-2-2-2-2-2-4-4-4-4-4-4-
A-|-4-4-4-4-4-4-4-4-4-4-4-4-2-2-2-2-2-2-4-4-4-4-4-4-
E-|-------------2-2-2-2-2-2-0-0-0-0-0-0-2-2-2-2-2-2-

"In some resolve well aware..."
e-|-------------------------------------------------------------------
B-|---------------------------------------------------PM.............-
G-|-----------------4-4-4-4----------PM.............--8-8-8-8-8-8-8-8-
D-|-6-6-6-6-7-7-7-7-4-4-4-4-4-4-4-4--6-6-6-6-6-6-6-6--8-8-8-8-8-8-8-8-
A-|-6-6-6-6-7-7-7-7-2-2-2-2-4-4-4-4--6-6-6-6-6-6-6-6--6-6-6-6-6-6-6-6-
E-|-4-4-4-4-5-5-5-5---------2-2-2-2--4-4-4-4-4-4-4-4------------------

e-|---------------0-Let ring-
B-|---------------0----------
G-|-9-9--8-8-----------------
D-|-9-9--8-8--2-2------------
A-|-7-7--6-6--2-2------------
E-|-----------0-0------------

"Well at ease in consent..."
e-|---------------------------------
B-|---------------------------------
G-|-8-8-8-8---------4-4-4-4---------
D-|-8-8-8-8-7-7-7-7-4-4-4-4-4-4-4-4-
A-|-6-6-6-6-7-7-7-7-2-2-2-2-4-4-4-4-
E-|---------5-5-5-5---------2-2-2-2-

e-|-------------------------------------------------
B-|-------------------------------------------------
G-|-4-4-4-4-4-4-4-4-4-4-4-4-------------------------
D-|-4-4-4-4-4-4-4-4-4-4-4-4-6-6-6-6-6-6-4-4-4-4-4-4-
A-|-2-2-2-2-2-2-1-1-1-1-1-1-6-6-6-6-6-6-4-4-4-4-4-4-
E-|-------------------------4-4-4-4-4-4-2-2-2-2-2-2-

"He won't justify the pity from them..."
e-|-------------------------------------------------
B-|-------------------------------------------------
G-|-------------4-4-4-4-4-4-6-6-6-6-6-6-------------
D-|-2-2-2-2-2-2-4-4-4-4-4-4-6-6-6-6-6-6-4-4-4-4-4-4-
A-|-2-2-2-2-2-2-2-2-2-2-2-2-4-4-4-4-4-4-4-4-4-4-4-4-
E-|-0-0-0-0-0-0-------------------------2-2-2-2-2-2-

e-|-------------------------------------------------------------------------
B-|-------------------------------------------------------------------------
G-|-4-4-4-4-4-4-4-4-4-4-4-4-------------------------9-9-9-9-9-9-4-4-4-4-4-4-
D-|-4-4-4-4-4-4-4-4-4-4-4-4-6-6-6-6-6-6-4-4-4-4-4-4-9-9-9-9-9-9-4-4-4-4-4-4-
A-|-2-2-2-2-2-2-1-1-1-1-1-1-6-6-6-6-6-6-4-4-4-4-4-4-7-7-7-7-7-7-2-2-2-2-2-2-
E-|-------------------------4-4-4-4-4-4-2-2-2-2-2-2-------------------------

e-|------------------------|
B-|------------------------|
G-|-6-6-6-6-6-6------------|
D-|-6-6-6-6-6-6-4-let ring-|
A-|-4-4-4-4-4-4-4----------|
E-|-------------2----------|

Bridge (gtr 1):
e-|-------------------------------------------------------------------
B-|-5-4---------------4-5-4-----------4-5-4---------------4-5-4-------
G-|-----6-4-3-3-3-4-6-------6-5-5-5-6-------6-4-3-3-3-4-6-------6-5-5-
D-|-------------------------------------------------------------------
A-|-------------------------------------------------------------------
E-|-------------------------------------------------------------------

e-|-----------4------------------4---------------4-----------------|
B-|-----4-5-7---7-5-4------4-5-7---7-5-4-4-4-5-7---7-5-4-----------|
G-|-5-6---------------6-6-6------------------------------6-6-6-4-3-|
D-|----------------------------------------------------------------|
A-|----------------------------------------------------------------|
E-|----------------------------------------------------------------|

Bridge (gtr 2 clear, live version):
e-|--------------------------------------------------------------------------
B-|---5---5--------------3---3---4--4-4----5---5--------------3---3---4--4-4-
G-|---6---6---3---3-3----4---4---5--5-5----6---6---3---3-3----4---4---5--5-5-
D-|---6---6---4---4-4----4---4---5--5-5----6---6---4---4-4----4---4---5--5-5-
A-|-4---4-----4---4-4--2---2---3---3-----4---4-----4---4-4--2---2---3---3----
E-|---------2---2--------------------------------2---2-----------------------

e-|--------------------------------------------------------|
B-|---5---5--------------3---3---4--4-4----5---5-----------|
G-|---6---6---3---3-3----4---4---5--5-5----6---6---3---3-3-|
D-|---6---6---4---4-4----4---4---5--5-5----6---6---4---4-4-|
A-|-4---4-----4---4-4--2---2---3---3-----4---4-----4---4-4-|
E-|---------2---2--------------------------------2---2-----|

Intro 2 (gtr 1)
e-|---------------------------
B-|-----------PM-----------PM-
G-|-4-4-4-4---4--4-4-4-4---4--
D-|-4-4-4-4---4--4-4-4-4---4--
A-|-2-2-2-2---2--2-2-2-2---2--
E-|---------------------------

Intro 2 (gtr 2)
e-|-------------------------
B-|-------------------------
G-|-----------4-8-8-8-8---8-
D-|-----------x-x-x-x-x---x-
A-|-----------2-6-6-6-6---6-
E-|-------------------------

"Here he is awaiting sentence..."                                  
e-|---------------------------------------------------------------------
B-|-----------PM--------------------------------------------------------
G-|-4-4-4-4---4------------PM-----------PM--------------PM.............-
D-|-4-4-4-4---4--4-4-4-4---4--6-6-6-6---6--4-4-4-4---4--2-2-2-2-2-2-2-2-
A-|-2-2-2-2---2--4-4-4-4---4--6-6-6-6---6--4-4-4-4---4--2-2-2-2-2-2-2-2-
E-|--------------2-2-2-2---2--4-4-4-4---4--2-2-2-2---2--0-0-0-0-0-0-0-0-

e-|-------------------------------------------------
B-|-PM.............---------------------------------
G-|-4-4-4-4-4-4-4-4-6-6-6-6-6-6-6-6-----------------
D-|-4-4-4-4-4-4-4-4-6-6-6-6-6-6-6-6-4-4-4-4-4-4-4-4-
A-|-2-2-2-2-2-2-2-2-4-4-4-4-4-4-4-4-4-4-4-4-4-4-4-4-
E-|---------------------------------2-2-2-2-2-2-2-2-

"A subtlety that can't be learned..."
e-|-------------------------------------------------------------------------
B-|-------------------------------------------------------------------------
G-|-4-4-4-4-4-4-4-4-4-4-4-4-------------------------9-9-9-9-9-9-4-4-4-4-4-4-
D-|-4-4-4-4-4-4-4-4-4-4-4-4-6-6-6-6-6-6-4-4-4-4-4-4-9-9-9-9-9-9-4-4-4-4-4-4-
A-|-2-2-2-2-2-2-1-1-1-1-1-1-6-6-6-6-6-6-4-4-4-4-4-4-7-7-7-7-7-7-2-2-2-2-2-2-
E-|-------------------------4-4-4-4-4-4-2-2-2-2-2-2-------------------------

e-|-------------------------------------------------
B-|-------------------------------------------------
G-|-6-6-6-6-6-6-------------------------------------
D-|-6-6-6-6-6-6-4-4-4-4-4-4-2-2-2-2-2-2-4-4-4-4-4-4-
A-|-4-4-4-4-4-4-4-4-4-4-4-4-2-2-2-2-2-2-4-4-4-4-4-4-
E-|-------------2-2-2-2-2-2-0-0-0-0-0-0-2-2-2-2-2-2-

"As he settles down well aware..."
e-|-------------------------------------------------------------------
B-|---------------------------------------------------PM.............-
G-|-----------------4-4-4-4----------PM.............--8-8-8-8-8-8-8-8-
D-|-6-6-6-6-7-7-7-7-4-4-4-4-4-4-4-4--6-6-6-6-6-6-6-6--8-8-8-8-8-8-8-8-
A-|-6-6-6-6-7-7-7-7-2-2-2-2-4-4-4-4--6-6-6-6-6-6-6-6--6-6-6-6-6-6-6-6-
E-|-4-4-4-4-5-5-5-5---------2-2-2-2--4-4-4-4-4-4-4-4------------------

e-|---------------0-let ring-
B-|---------------0----------
G-|-9-9--8-8-----------------
D-|-9-9--8-8--2-2------------
A-|-7-7--6-6--2-2------------
E-|-----------0-0------------

"But if sorrow is signified he's well aware of his..."
e-|------------------------------------|
B-|------------------------------------|
G-|-8-8-8-8---------4-4-4-4------------|
D-|-8-8-8-8-7-7-7-7-4-4-4-4-4-let-ring-|
A-|-6-6-6-6-7-7-7-7-2-2-2-2-4----------|
E-|---------5-5-5-5---------2----------|

Outro:
"...pride!"
e-|--------------------------------------
B-|--------------------------------------
G-|-9----------------------6-6-------9-9-
D-|-9--9-9--7-7--7-7--6-6--6-6--2-2--9-9-
A-|-7--9-9--7-7--6-6--6-6--4-4--2-2--7-7-
E-|-7--7-7--5-5--5-5--4-4--4-4--0-0------

e-|--------------------------------------
B-|--------------------------------------
G-|-9----------------------6-6-------9-9-
D-|-9--9-9--7-7--7-7--6-6--6-6--2-2--9-9-
A-|-7--9-9--7-7--6-6--6-6--4-4--2-2--7-7-
E-|-7--7-7--5-5--5-5--4-4--4-4--0-0------

e-|--------------------------------------
B-|--------------------------------------
G-|-9----------------------6-6-------9-9-
D-|-9--9-9--7-7--7-7--6-6--6-6--2-2--9-9-
A-|-7--9-9--7-7--6-6--6-6--4-4--2-2--7-7-
E-|-7--7-7--5-5--5-5--4-4--4-4--0-0------

e-|-------------------------------------------------|
B-|-------------------------------------------------|
G-|-9----------------------6-6----------------------|
D-|-9--9-9--7-7--7-7--6-6--6-6--4-4-4-4--2-let-ring-|
A-|-7--9-9--7-7--6-6--6-6--4-4--4-4-4-4--2----------|
E-|-7--7-7--5-5--5-5--4-4--4-4--2-2-2-2--0----------|

Whew!! Listen to the song to get the right rhythm. See ya in the pit!





Comments


Popular Lagwagon tabs & chords
Confession 1 Tabs
Demented Rumours Tabs
Going South Tabs
Losing Everyone Tabs
Love Story Tabs
One Thing To Live Tabs
Owen Meany Tabs
Bad Scene Ukulele
Drive By Ukulele
Resolve Ukulele


Song lyrics



↑ Back to top | Tablatures and chords are parodies/interpretations of the original songs. You may use it for private study, scholarship, research or language learning purposes only
© 2014 AZChords.com Contact us | Privacy policy | DMCA | Add/correct tabs | Request tabs | Top 50 tabs