>
 >
May

May Guitar Tabs

Lagwagon - May chords, tabs, tablatures, lyrics

Guitar lessons | Add/correct | Request | Top 50 tabs Artists:  A B C D E F G H I J K L M N O P Q R S T U V W X Y Z 0-9

May Guitar Tabs – Lagwagon

CD, Sheet music, Poster

Do you like May? Share with your friends now
TabsTabs v2Tabs v3
Comment: I dont know why this tab is under the name 'May' because thats not what I tried to put it under.  
I think this is as perfect as you are gonna get. Enjoy.

Intro/Riff 1:
Guitar 1
|------------------------------------------| 
|------------------------------------------| 
|-9-7-6-7----9-7-6-7----9-7-6-7----7-6-4-2-| 
|-0-0-0-0----0-0-0-0----0-0-0-0----0-0-0-0-| 
|------------------------------------------| next bit is the same - work out rhythm
|------------------------------------------| 
Guitar 2
|------------------------------------------|------------|  
|------------------------------------------|------------|  
|-7---------7-----------7------------------|-7----------|  
|-7---------7-----------7----------7-------|-7--9--5--7-|  
|-5---------5-----------5----------7-------|-5--9--5--7-| 
|----------------------------------5-------|----7--3--5-| 
 
Riff 2
|----------------------------------------------------| 
|----------------------------------------------------| 
|---------7--------9-----11--------11-----12-11-9----| 
|--[7][7]---[7][7]---[7]----[7][7]----[7]---------12-| 
|----------------------------------------------------| 
|----------------------------------------------------| 


Verse:
Guitar 1
|-------------------------------------------| 
|-------------------------------------------|
|-7-----7----------------7------------------|
|-7--9--7--4--9/7--5--7--7--7--9-9/7--5--7-|
|-5--9--5--4-------5--7--5--7--9-------5--7-|
|----7-----2--7/5--3--5-----5--7-7/5--3--5-|
Guitar 2
|-------------------------------------------|
|-------------------------------------------|
|-7-----7-----7/6--------11-6-----7/6-------|
|-7--9--7--4-------5--7--------9-------5--7-|
|-5--9--5--4-5/4--5--7--9--4--9-5/4--5--7-|
|----7-----2-------3--5--------7-------3--5-|

Chorus:
Guitar 1
|---------------------------------------------|
|---------------------------------------------|
|-7-------------------------------------------|
|-7----7---------9----4-----------5-----7----|
|-5----7---------9----4-----------5-----7----|
|------5----------7----2-----------3-----5----|
Guitar 2
|---------------------------------------------| 
|---------------------------------------------| 
|-7-7--9-9-9-11-9-------9-9-9-11-9--7-9--11-9-| 
|-7-7--------------9-9------------------------| 
|-5-5--7-7-7-9-7---9-9--7-7-7--9-7--5-7---9-7-| 
|------------------7-7------------------------| 

Pre-Bridge
Guitar 1      Guitar 2
|------------|------------|
|------------|------------|
|-11-9--7--6-|------------|    x 4 (work out rhythm)
|------------|-7--7--7--7-|
|-9--7--5--4-|-7--7--7--7-|
|------------|-5--5--5--5-|

Bridge:                                           
Guitar 1                                          Guitar 2
|-----------------------------------------------| |--------------------| 
|-----------------------------------------------| |--------------------| 
|-7-7-7-7-7-------------------------------------| |-777777777777777777-| 
|-7-7-7-7-7---9-9-9-9-9---5-5-5-5-5---7-7-7-7-7-| |--------------------| 
|-5-5-5-5-5---9-9-9-9-9---5-5-5-5-5---7-7-7-7-7-| |-555555555555555555-|
|-------------7-7-7-7-7---3-3-3-3-3---5-5-5-5-5-| |--------------------| 
                                                  
Solo:
Guitar 1
|---------------------------------------------------------------------------| 
|--------------5--------------------7------------------------5-------7------| 
|-----4-6-7~-----7-6-7~---6~--4-------7-4--2-4-6-3-4-6-7-6-4---7-6-7---7/9~-| 
|-7~----------------------------7~------------------------------------------| 
|---------------------------------------------------------------------------| 
|---------------------------------------------------------------------------| 
Guitar 2
|---------------------------------------------------------------------------|
|---------------------------------------------------------------------------|
|-7--------------------------------7----------------------------------------|
|-7-------9----------5--------7----7------------4--------------------5---7--|
|-5-------9----------5--------7----5------------4--------------------5---7--|
|---------7----------3--------5-----------------2--------------------3---5--|

Outro:
Guitar 1
|-------------------------------------------------------------------------| 
|-------------------------------------------------------------------------| 
|---------7--------9-----11--------11-----12-11-9------------7--------9-7-| 
|--[7][7]---[7][7]---[7]----[7][7]----[7]---------12--[7][7]---[7][7]-----| 
|-------------------------------------------------------------------------| 
|-------------------------------------------------------------------------|
Guitar 2
|---------------------|
|---------------------|
|-7-----------7-----4-|
|-7--7--9--5--7--4--4-|
|-5--7--9--5--5--4--2-|
|----5--7--3-----2----|





Comments


Popular Lagwagon tabs & chords
Give It Back 1 Bass Tabs
Drive By Chords
Resolve Chords
Billionaire 2 Tabs
Everything Turns Grey Tabs
Failure Tabs
Know It All Tabs
May 16 2 Tabs
Today Tabs
May16 Ukulele


Song lyrics



↑ Back to top | Tablatures and chords are parodies/interpretations of the original songs. You may use it for private study, scholarship, research or language learning purposes only
© 2014 AZChords.com Contact us | Privacy policy | DMCA | Add/correct tabs | Request tabs | Top 50 tabs