» » »

Lagwagon, Owen Meaney Tabs (ver.1)

Artists:  A B C D E F G H I J K L M N O P Q R S T U V W X Y Z # 

Owen Meaney Tabs (ver.1)

Lagwagon Tabs
 Rating:
4/5 (4 votes)
Owen Meaney lessons Tabs too difficult? Try these video lessons and learn fast
1
                
OK.I'd Say : Give it up for that guy who made this tab!!!!!!!!!!!!!!!!!!!!!!!!!
This is really a god song.Its actually my best song besides ANGRY DAYS.
And remember this is not my tab i posted it beacause i want that this tab is 
here on this site beacause this song should play everyone!!!! 
PUNKs WONT EVER DIE!!!!!Agree???????



The orders of the parts are at the end of each guitars section. 
. = Palm Muted 
x = Mute String 
/ = Slide Up 
\ = Slide Down 

Guitar 1 ( Guitar 2's part is at the end of this one ) 
Fig. 1 
|------------------------------------------------------------------| 
|------------------------------------------------------------------| 
|-.-.-.-.-.-.-.--.-.-.-.-.-.-.--.-.-.-.-.-.-.--.-.-.-.-.-.-.-------| 
|-5-5-5-5-5-5-5--5-5-5-5-5-5-5--5-5-5-5-5-5-5--5-5-5-5-5-5-5-------| 
|-5-5-5-5-5-5-5--5-5-5-5-5-5-5--5-5-5-5-5-5-5--5-5-5-5-5-5-5-------| 
|-3-3-3-3-3-3-3--3-3-3-3-3-3-3--3-3-3-3-3-3-3--3-3-3-3-3-3-3-------| 

|------------------------------------------------------------------| 
|------------------------------------------------------------------| 
|-.-.-.-.-.-.-.--.-.-.-.-.-.-.--.-.-.-.-.-.-.--.-.-.-.-.-.-.-------| 
|-7-7-7-7-7-7-7--7-7-7-7-7-7-7--7-7-7-7-7-7-7--7-7-7-7-7-7-7-------| 
|-7-7-7-7-7-7-7--7-7-7-7-7-7-7--7-7-7-7-7-7-7--7-7-7-7-7-7-7-------| 
|-5-5-5-5-5-5-5--5-5-5-5-5-5-5--5-5-5-5-5-5-5--5-5-5-5-5-5-5-------| 

Fig. 2 
|------------------------------------------------------------------| 
|------------------------------------------------------------------| 
|-------7------7--------7------7--------7------7--------7------7---| 
|------------------------------------------------------------------| 
|-5-5-5---5-5-----5-5-5---5-5-----5-5-5---5-5-----5-5-5---5-5------| 
|------------------------------------------------------------------| 

|------------------------------------------------------------------| 
|------------------------------------------------------------------| 
|-------7------7--------7------7-------11-----11--------9-----9----| 
|------------------------------------------------------------------| 
|-5-5-5---5-5-----5-5-5---5-5-----9-9-9---9-9-----7-7-7---7-7------| 
|------------------------------------------------------------------| 

Fig. 3 
|------------------------------------------------------------------| 
|------------------------------------------------------------------| 
|-7-7-7--7-7-7--7-7-7--12--11-11--9-9-9--9-9-9--9-9-9--11-11--9----| 
|-x-x-x--x-x-x--x-x-x---x---x--x--x-x-x--x-x-x--x-x-x---x--x--x----| 
|-5-5-5--5-5-5--5-5-5--10---9--9--7-7-7--7-7-7--7-7-7---9--9--7----| 
|------------------------------------------------------------------| 

Fig. 4 
|-------------------------------------------------------------------| 
|-------------------------------------------------------------------| 
|-14--12-12-12--14--12-12-12--14---14--12-12-12--14--12-12-12--14---| 
|--x---x--x--x---x---x--x--x---x----x---x--x--x---x---x--x--x---x---| 
|-12--10-10-10--12--10-10-10--12---12--10-10-10--12--10-10-10--12---| 
|-------------------------------------------------------------------| 

Fig. 5 
|------------------------------------------| 
|------------------------------------------| 
|-14-14-14--14-14-14--12-12-12--11-11-11---| 
|--x--x--x---x--x--x---x--x--x---x--x--x---| 
|-12-12-12--12-12-12--10-10-10---9--9--9---| 
|------------------------------------------| 

Fig. 6 
|----------------------------------------------------------| 
|----------------------------------------------------------| 
|----------------------------------------------------------| 
|-5-5-5--5-5-5--7-7-7--7-7-7--5-5-5--5-5-5--7-7-7--7-7-7---| 
|-5-5-5--5-5-5--7-7-7--7-7-7--5-5-5--5-5-5--7-7-7--7-7-7---| 
|-3-3-3--3-3-3--5-5-5--5-5-5--3-3-3--3-3-3--5-5-5--5-5-5---| 

Fig. 7 
|------------------------------------------------------------| 
|------------------------------------------------------------| 
|-7-7-7--7-7-7-----------------------------------------------| 
|-7-7-7--7-7-7--4-4-4--4-4-4--5-5-5--5-5-5--7-7-7--7-7-7-----| 
|-5-5-5--5-5-5--4-4-4--4-4-4--5-5-5--5-5-5--7-7-7--7-7-7-----| 
|---------------2-2-2--2-2-2--3-3-3--3-3-3--5-5-5--5-5-5-----| 

Fig. 8 
|-----------------------------------------------| 
|-----------------------------------------------| 
|-----------------------------------------------| 
|-9-------5---2----4-4-4--4-4-4--5-5-5--7-7-7---| 
|-9-------5---2----4-4-4--4-4-4--5-5-5--7-7-7---| 
|-7-------3---0----2-2-2--2-2-2--3-3-3--5-5-5---| 

Fig. 9 
|------------------------------------------------------------------------| 
|------------------------------------------------------------------------| 
|-7-7-7-7-7-7-7---7-7-7-7-7-7-7---12-12-12-12-12-12-12---7-7-7-7-7-7-7---| 
|-7-7-7-7-7-7-7---7-7-7-7-7-7-7----x--x--x--x--x--x--x---7-7-7-7-7-7-7---| 
|-5-5-5-5-5-5-5---5-5-5-5-5-5-5---10-10-10-10-10-10-10---5-5-5-5-5-5-5---| 
|------------------------------------------------------------------------| 

Fig. 10 
|-------------------------------------| 
|-------------------------------------| 
|-7--9--11--12--9--11--9-9-9--9-9-9---| 
|-x--x---x---x--x---x--x-x-x--x-x-x---| 
|-5--7---9--10--7---9--7-7-7--7-7-7---| 
|-------------------------------------| 

Fig. 11 
|-----| 
|-----| 
|-7\--| 
|-7\--| 
|-5\--| 
|-----| 

ORDER: 
FIG. 1 
FIG. 1 
FIG. 2 
FIG. 2 
FIG. 3 
FIG. 3 
FIG. 4 
FIG. 5 
FIG. 4 
FIG. 5 
FIG. 6 
FIG. 6 
FIG. 7 
FIG. 7 
FIG. 7 
FIG. 8 
FIG. 9 
FIG. 7 
FIG. 7 
FIG. 8 
FIG. 4 
FIG. 5 
FIG. 4 
FIG. 5 
FIG. 3 
FIG. 10 
FIG. 4 
FIG. 11 


Guitar 2 
Fig. 1 
|--------------------------------------| 
|--------------------------------------| 
|--------------------------------------| 
|--------------------------------------| 
|-5-5-5--7-7-7--9---5-5-5--7-7-7---9---| 
|--------------------------------------| 

|--------------------------------------| 
|--------------------------------------| 
|--------------------------------------| 
|--------------------------------------| 
|-5-5-5--7-7-7--9---5-5-5--7-7-7---9---| 
|--------------------------------------| 

|--------------------------------------| 
|--------------------------------------| 
|--------------------------------------| 
|--------------------------------------| 
|-7-7-7--9-9-9--10--7-7-7--9-9-9--10---| 
|--------------------------------------| 

|--------------------------------------| 
|--------------------------------------| 
|--------------------------------------| 
|--------------------------------------| 
|-7-7-7--9-9-9--10--7-7-7--9-9-9--10---| 
|--------------------------------------| 

Fig. 2 (You play these notes about 4 times each) 
|----------------------------------------------------------------------| 
|----------------------------------------------------------------------| 
|-----------------------------------7-7-7--7-7-7--7--7-7-7--7-7-7--7---| 
|-5-5-5--5-5-5--5--5-5-5--5-5-5--5--7-7-7--7-7-7--7--7-7-7--7-7-7--7---| 
|-5-5-5--5-5-5--5--5-5-5--5-5-5--5--5-5-5--5-5-5--5--5-5-5--5-5-5--5---| 
|-3-3-3--3-3-3--3--3-3-3--3-3-3--3-------------------------------------| 

|-------------------------------------------------------------------| 
|-------------------------------------------------------------------| 
|-----------------------------------7-7-7--7-7-7--7-----------------| 
|-5-5-5--5-5-5--5--5-5-5--5-5-5--5--7-7-7--7-7-7--7--9-9-9--7-7-7---| 
|-5-5-5--5-5-5--5--5-5-5--5-5-5--5--5-5-5--5-5-5--5--9-9-9--7-7-7---| 
|-3-3-3--3-3-3--3--3-3-3--3-3-3--3-------------------7-7-7--5-5-5---| 

Fig. 3 
|----------------------------------------------------------------------------| 
|----------------------------------------------------------------------------| 
|----------------------------------------------------------------------------| 
|-5-5-5-5-5-5-5-5-5-5-5-5-5-5-5-5-5-5--7-7-7-7-7-7-7-7-7-7-7-7-7-7-7-7-7-7---| 
|-5-5-5-5-5-5-5-5-5-5-5-5-5-5-5-5-5-5--7-7-7-7-7-7-7-7-7-7-7-7-7-7-7-7-7-7---| 
|-3-3-3-3-3-3-3-3-3-3-3-3-3-3-3-3-3-3--5-5-5-5-5-5-5-5-5-5-5-5-5-5-5-5-5-5---| 

Fig. 4 
|----------------------------------------------------------------------------| 
|----------------------------------------------------------------------------| 
|-7-7-7-7-7-7-7--7-7-7-7-7-7-7--12-12-12-12-12-12-12--12-12-12-12-12-12-12---| 
|-7-7-7-7-7-7-7--7-7-7-7-7-7-7--12-12-12-12-12-12-12--12-12-12-12-12-12-12---| 
|-5-5-5-5-5-5-5--5-5-5-5-5-5-5--10-10-10-10-10-10-10--10-10-10-10-10-10-10---| 
|----------------------------------------------------------------------------| 

Fig. 5 
|------------------------------| 
|------------------------------| 
|-7-7-7--7-7-7--7-7-7--7-7-7---| 
|-7-7-7--7-7-7--7-7-7--7-7-7---| 
|-5-5-5--5-5-5--5-5-5--5-5-5---| 
|------------------------------| 

Fig. 6 
|------------------------------------------------------------------------------------| 
|------------------------------------------------------------------------------------| 
|-7-7-7--7-7-7----------------7-7-7--7-7-7--14-14-14--11-11-11--12-12-12--12-12-12---| 
|-7-7-7--7-7-7--9-9-9--7-7-7--x-x-x--x-x-x---x--x--x---x--x--x---x--x--x---x--x--x---| 
|-5-5-5--5-5-5--9-9-9--7-7-7--5-5-5--5-5-5--12-12-12---9--9--9--10-10-10--10-10-10---| 
|---------------7-7-7--5-5-5---------------------------------------------------------| 

|------------------------| 
|------------------------| 
|-9--11--12--9--11--12---| 
|-x---x---x--x---x---x---| 
|-7---9--10--7---9--10---| 
|------------------------| 

Fig. 7 
|------------------------------------------------------------| 
|------------------------------------------------------------| 
|-7-7-7--7-7-7-----------------------------------------------| 
|-7-7-7--7-7-7--4-4-4--4-4-4--5-5-5--5-5-5--7-7-7--7-7-7-----| 
|-5-5-5--5-5-5--4-4-4--4-4-4--5-5-5--5-5-5--7-7-7--7-7-7-----| 
|---------------2-2-2--2-2-2--3-3-3--3-3-3--5-5-5--5-5-5-----| 

Fig. 8 
|-----------------------------------------------| 
|-----------------------------------------------| 
|-----------------------------------------------| 
|-9-------5---2----4-4-4--4-4-4--5-5-5--7-7-7---| 
|-9-------5---2----4-4-4--4-4-4--5-5-5--7-7-7---| 
|-7-------3---0----2-2-2--2-2-2--3-3-3--5-5-5---| 

Fig. 9 
|-----------------------------------------------------------------| 
|-----------------------------------------------------------------| 
|-7-7-7-7-7-7-7---7-7-7-7-7-7-7---7-7-7-7-7-7-7---7-7-7-7-7-7-7---| 
|-7-7-7-7-7-7-7---7-7-7-7-7-7-7---7-7-7-7-7-7-7---7-7-7-7-7-7-7---| 
|-5-5-5-5-5-5-5---5-5-5-5-5-5-5---5-5-5-5-5-5-5---5-5-5-5-5-5-5---| 
|-----------------------------------------------------------------| 

Fig. 10 
|-------------------------------| 
|-------------------------------| 
|-------------------------------| 
|-5-5-5--5-5-5---7-7-7--7-7-7---| 
|-5-5-5--5-5-5---7-7-7--7-7-7---| 
|-3-3-3--3-3-3---5-5-5--5-5-5---| 

Fig. 11 
|-----| 
|-----| 
|-7\--| 
|-7\--| 
|-5\--| 
|-----| 

ORDER: 
FIG. 1 
FIG. 1 
FIG. 2 
FIG. 3 
FIG. 3 
FIG. 4 
FIG. 5 
FIG. 4 
FIG. 6 
FIG. 7 
FIG. 7 
FIG. 7 
FIG. 8 
FIG. 9 
FIG. 7 
FIG. 7 
FIG. 8 
FIG. 4 
FIG. 5 
FIG. 4 
FIG. 6 
FIG. 10 
FIG. 5 
FIG. 11 

PHEW! 
I think (and certainly hope) that's it, ot only took me a full Sunday 
morning to finish. I'm 100% sure of every note of it, so don't complain 
            
Submit corrections

comments powered by Disqus
↑ Back to top | Lagwagon Tabs for Owen Meaney. Lyrics for acoustic guitar and electric guitar. 1 Tablatures and chords are parodies/interpretations of the original songs. You may use it for private study, scholarship, research or language learning purposes only