» » »

Billionaire Bass tabs (ver.1)

Artists:  A B C D E F G H I J K L M N O P Q R S T U V W X Y Z # 

Billionaire Bass tabs (ver.1)

Lagwagon
Rating:
0/5 (0 votes)

Hard to play? Try these video lessons and learn fast.
                Artist - Lagwagon	
Song - Billionaire
Album - Blaze


G|----------------------------------------
D|----------------------------------------
A|-1h333-333-666-666-888-888-101010-101010	those are tens.
E|----------------------------------------

repeat then play notes x12 for the next bit, then play normally for the
first verse.

G|------------
D|------------
A|---3-2-1----
E|---------4--

Chrous "You have to honour me"

G|------------------------------
D|------------------------------
A|--6666666-5555555-33333333---- play twice then
E|------------------------------

G|---------------------------
D|---------------------------
A|--33333333--66666666-- ----
E|---------------------6~-4~-

G|---------------------------------------------
D|---------------------------------------------
A|-1h3333-33------------1h3333-33--------------
E|-----------3-3-44-4-66----------3-3-44-4-66--

Verse 2

G|------------------------
D|------------------------
A|---3~----3~-----3-2-1---
E|----------------------4-

Chrous
G|------------------------------
D|------------------------------
A|--6666666-5555555-33333333---- play twice then
E|------------------------------

G|--------------------------------
D|--------------------------------
A|--33333333--66666666------------
E|---------------------6666666--4-

Then 
G|----------------------------------------
D|----------------------------------------
A|-1h333-333-666-666-888-888-101010-101010	those are tens.
E|----------------------------------------

G|---------------------------
D|---------------------------
A|-1h333-333-663-663-663-663-	
E|---------------------------

Then play
G|---------------------------------------------
D|---------------------------------------------
A|-1h3333-33------------1h3333-33--------------
E|-----------3-3-44-4-66----------3-3-44-4-66--

Ending
G|----------------------------------------
D|----------------------------------------
A|-3333-33-1111-11-----------------3------
E|-----------------4444-44-3333-33--------

There you go all done, lagwagon are cool.
            
Hard to play? Try these video lessons and learn fast. | Correct




comments powered by Disqus
↑ Back to top | Tablatures and chords are parodies/interpretations of the original songs. You may use it for private study, scholarship, research or language learning purposes only