» » »

Lagwagon, Billionaire Bass tabs (ver.2)

Artists:  A B C D E F G H I J K L M N O P Q R S T U V W X Y Z # 

Billionaire Bass tabs (ver.2)

Lagwagon Tabs
Rating:
0/5 (0 votes)
Billionaire lessons Tabs too difficult? Try these video lessons and learn fast
                BILLIONAIRE by Lagwagon. Album : Blaze (2003)                          
awesome.. awesome... really not that hard to play but incredible music once again!

# intro-part1 # 0:26  *=play 7-8X
G|-----------*---*---------------*-|
D|---*---*--3--35----*---*------5--|
A|--3--36--6--------3--36--6-*-----|
E|-6---------------6--------6--6---|

# intro-part2 #   #=play 16X     *=play 7-8X  
G|---------------------|
D|--#--*----8-88-------|
A|-3--6--666----8-#--#-|
E|---------------6--4--|

# verse #   *=play 7-8X  
G|-------------------------------------|
D|--*-----------*----------------------|
A|-3---*--*--*-3---*--*--*-3--2--------|
E|----6--6--3-----6--1--3--------6--4--|

# chorus1 #   #=play 16X 
G|--------------------------------------|
D|--#------#-----#--#-------------------|
A|-6---#--6---#-3--6--------------------|
E|----4------4--------6---6--6\4---4--4-|

# bridge #          x4
G|------------------|
D|------------------|
A|---333------------|
E|-66---3--334--446-|

pause untill 1:30 then

# intro to chorus #   
G|----------------------------|
D|-8--6-----------8--7--------|
A|----------------------------|
E|-------1--3-----------6--4--|

# chorus2 #   #=play 16X 
G|-----------------------------------------------|
D|--#------#-----#--#------#--#------------------|
A|-6---#--6---#-3--6---#--3--6---#---------------|
E|----4------4--------6---------6---4--4---4--4--|
 
# intro to ending # 6  *=play 7-8X   $=play 4x
G|-----------*---*---------------------|
D|---*---*--3--35----*--$-----$-----$--|
A|--3--36--6--------3-36-3---6-3---6-3-|
E|-6---------------6-------------------|

then play bridge x4

# outro #
G-------------------------------------|
D-------------------------------------|
A---3-3-3-3-------------------------3-|
E-----------6-6-6-6-4------3----------|


I love this song.. I love this album..... why are they so good?
            
Submit corrections

comments powered by Disqus
↑ Back to top | Lagwagon Bass for Billionaire. Lyrics for acoustic guitar and electric guitar. Tablatures and chords are parodies/interpretations of the original songs. You may use it for private study, scholarship, research or language learning purposes only