>
 >
Sweet Goodbyes 1

Sweet Goodbyes 1 Guitar Tabs

Krezip - Sweet Goodbyes 1 chords, tabs, tablatures, lyrics

Guitar lessons | Add/correct | Request | Top 50 tabs Artists:  A B C D E F G H I J K L M N O P Q R S T U V W X Y Z 0-9

Sweet Goodbyes 1 Guitar Tabs – Krezip

CD, Sheet music, Poster

Do you like Sweet Goodbyes 1? Share with your friends now
Bass TabsChordsChords v2Chords v3TabsTabs v2Tabs v3Ukulele

Em     022000  of  x79987
D/F#   2xx232
G      320033
Cadd9  x32030
C      x32010  of  x35553
D      x57775
Cmaj7  x32000
Dadd9  xx0230
D/E    0xx232


Capo op 4


Intro: 

     Em      D/F#    G        Cadd9    Em      D       C
e  |---0---0-------------------------|---7---7---5---5---3---3---3---3-|
B  |---0---0---3---3---3-------3---3-|---8---8---7---7---5---5---5---5-|
G  |-----------2---2---0-------0---0-|---------------------------------|
D  |---------------------------------|---------------------------------| 
A  |---------------------0-2-3---3---|/7---7---5---5---3---3---3---3---|
E  |-0---0---2---2---3---------------|---------------------------------| 2x


Verse: 
     Em      D/F#    G       Cadd9     Em      D       Cadd9    
e  |---0---0-------------------------|---0---0---------------0-------0-|
B  |---0---0---3---3---3-------3---3-|---0---0---3---3---3---3---3---3-|
G  |-----------2---2---0-------0---0-|-----------0---0---0-------0-----|
D  |---------------------------------|---------------------------------| 
A  |---------------------0-2-3---3---|---------5---5---3---3---3---3---|
E  |-0---0---2---2---3---------------|-0---0---------------------------|

Can't sleep, cause everything changing, you don't want to leave things behind
Can't breathe there's too many things, going on, going wrong in your life


Pre-chorus:
     C       Cmaj7                                             D 
e  |---0---0---0---0---0---0---0---0-|---0---0---0---0---0---0-0-------|
B  |---1---1---0---0---1---1---0---0-|---1---1---0---0---1---1-3-------|
G  |---0---0---0---0---0---0---0---0-|---0---0---0---0---0---0-0-------|
D  |---------------------------------|---------------------------------| 
A  |-3---3---3---3---3---3---3---3---|-3---3---3---3---3---3---5-------|
E  |---------------------------------|---------------------------------|

     Tears in your eyes, sweet goodbye's... I know how you  


Chorus: 
     C       D       Em      G/B       C       D       G       D/F#
e  |---------------------------------|---------------------------------|
B  |---1---1---3---3---5---5---0---0-|---1---1---3---3---0---0---------|
G  |---0---0---0---0---0---0---0---0-|---0---0---0---0---0---0---2---2-|
D  |---------------------------------|---------------------------0---0-|
A  |-3---3---5---5---7---7---2---2---|-3---3---5---5-------------------|
E  |---------------------------------|-----------------3---3---2---2---|

     feel right now. Losing dreams you've come to care about. I know what you

     C       D       G       D/F#      C               D
e  |---------------------------------|---------------------------------|
B  |---1---1---3---3---0---0---------|---1---1---1---1---3---3---3---3-|
G  |---0---0---0---0---0---0---2---2-|---0---0---0---0---0---0---0---0-|
D  |---------------------------0---0-|---------------------------------|
A  |-3---3---5---5-------------------|-3---3---3---3---5---5---5---5---|
E  |-----------------3---3---2---2---|---------------------------------|

    need right now. You need to come on home so I can hold you tight. I'll get you through the


     Em      D/F#    G        Cadd9    Em      D       C
e  |---0---0-------------------------|---7---7---5---5---3---3---3---3-|
B  |---0---0---3---3---3-------3---3-|---8---8---7---7---5---5---5---5-|
G  |-----------2---2---0-------0---0-|---------------------------------|
D  |---------------------------------|---------------------------------| 
A  |---------------------0-2-3---3---|/7---7---5---5---3---3---3---3---|
E  |-0---0---2---2---3---------------|---------------------------------|

     night. I'll get you trough the night.


--==Couplet

Wake up, the sun's shining bright
Let's go out of bed, into the light
Shape up, we won't forget
still there's lots of love left to hold tight


--== Pre-Chorus

Tears in your eyes, sweet goodbyes...


--== Chorus

I know how you feel right now
Losing dreams you've come to care about
I know what you need right now
You need to come on home so I can hold you tight

I'll get you through the night


Bridge:
     C               D/E               C                D/E     G
e  |---3---3---3---3---2---2---2---2-|---3---3---3---3---2---2---3-----|
B  |---0---0---0---0---3---3---3---3-|---0---0---0---0---3---3---3---3-|
G  |---------------------------------|-------------------------------0-|
D  |---------------------------------|---------------------------------| 
A  |-3---3---3---3-------------------|-3---3---3---3-------------------|
E  |-----------------0---0---0---0---|-----------------0---0---3---3---|

Everything of love between us, will get us trough the night
All the things we've lost will teach us, see the pretty things in life

     C               D/E               C/A             Em
e  |---3---3---3---3---2---2---2---2-|-------0-----------0---0---0---0-|
B  |---0---0---0---0---3---3---3---3-|---1---1---1-------0---0---0---0-|
G  |---------------------------------|---0-------0---0-0---0---0---0---|
D  |---------------------------------|---------------------------------|
A  |-3---3---3---3---2---2---2---2---|-0---0---0---0-------------------|
E  |---------------------------------|---------------------------------|
All the places that we've been to the people we relate to,
all the love that we give in to, blow the

         C   Cmaj7                                             D 
e  |---0---0---0---0---0---0---0---0-|---0---0---0---0---0---0-0-------|
B  |---1---1---0---0---1---1---0---0-|---1---1---0---0---1---1-3-------|
G  |---0---0---0---0---0---0---0---0-|---0---0---0---0---0---0-0-------|
D  |---------------------------------|---------------------------------| 
A  |-3---3---3---3---3---3---3---3---|-3---3---3---3---3---3---5-------|
E  |---------------------------------|---------------------------------|
     Tears from our eyes, sweet goodbye's...

--== Chorus

I know how you feel right now
Losing dreams you've come to care about
I know what you need right now
You need to come on home so I can hold you tight

I know how you feel right now
Losing dreams you've come to care about
I know what you need right now
You need to come on home so I can hold you tight

       D             G   
e  |---------------------------------|-----------------------------2---|------3---|
B  |---3---3---3---3---3-----3-------|---3-----3---------3-----3-------|-----3----|
G  |---0---0---0---0-----0-----0---0-|-----0-----0---0-----0-----0-----|----0-----|
D  |-----------------------0-----0---|-------0-----0---------0---------|---0------| 
A  |-5---5---5---5-------------------|---------------------------------|--2-------|
E  |-----------------3---------------|-3---------------3---------------|-3--------| (let ring)
            I'll get you through the night

Credits: Mys11 @ tabsrus.nl





Comments


Popular Krezip tabs & chords
Get It On Bass Tabs
In Her Head Bass Tabs
All My Life Chords
I Would Stay Chords
Ordinary Day Chords
All Unsaid Tabs
More Than This Tabs
Venus Tabs
Everybody Gotta Learn Something Ukulele
I Would Stay Ukulele


Song lyrics



↑ Back to top | Tablatures and chords are parodies/interpretations of the original songs. You may use it for private study, scholarship, research or language learning purposes only
© 2014 AZChords.com Contact us | Privacy policy | DMCA | Add/correct tabs | Request tabs | Top 50 tabs