» » »

Krezip, Sweet Goodbyes Tabs (ver.3)

Artists:  A B C D E F G H I J K L M N O P Q R S T U V W X Y Z # 

Sweet Goodbyes Tabs (ver.3)

Krezip Tabs
Rating:
0/5 (0 votes)
Sweet Goodbyes lessons Tabs too difficult? Try these video lessons and learn fast
                This is my first tab, I hope you like it. :)

A few important things:
- This song must be played in capo 2.
- At the arrow (↓), you just strike the strings.
- Behind the last measure is a X, that means that you must not strike that string.



   Intro:

      F#m   E        A   b c# D        F#m   E         D
E |----2-2---0-0--|---2--------2-2-|----2-2---0-0--|----2-2---2-2--|
B |----2-2---0-0--|---2--------3-3-|----2-2---0-0--|----3-3---3-3--|
G |----2-2---1-1--|---2--------2-2-|----2-2---1-1--|----2-2---2-2--|
D |---------------|-----------0----|---------------|---0-----0-----|
A |---------------|--0---2-3-------|---------------|---------------|
E |---2-----0-----|----------------|---2-----0-----|---------------|

      F#m   E        A      D         F#m    E         D
E |----2-2---0-0--|---2-2----2-2---|----2-2---0-0--|----2-2---2-2--|
B |----2-2---0-0--|---2-2----3-3---|----2-2---0-0--|----3-3---3-3--|
G |----2-2---1-1--|---2-2----2-2---|----2-2---1-1--|----2-2---2-2--|
D |---------------|---------0------|---------------|---0-----0-----|
A |---------------|--0-------------|---------------|---------------|
E |---2-----0-----|----------------|---2-----0-----|---------------|

  Couplet:

     F#m    E        A   b c# D        F#m   E         D
E |----2-2---0-0--|---2--------2-2-|----2-2---0-0--|----2-2---2-2--|
B |----2-2---0-0--|---2--------3-3-|----2-2---0-0--|----3-3---3-3--|
G |----2-2---1-1--|---2--------2-2-|----2-2---1-1--|----2-2---2-2--|
D |---------------|-----------0----|---------------|---0-----0-----|
A |---------------|--0---2-3-------|---------------|---------------|
E |---2-----0-----|----------------|---2-----0-----|---------------|

      F#m   E        A      D          F#m   E         D
E |----2-2---0-0--|---2-2----2-2---|----2-2---0-0--|----2-2---2-2--|
B |----2-2---0-0--|---2-2----3-3---|----2-2---0-0--|----3-3---3-3--|
G |----2-2---1-1--|---2-2----2-2---|----2-2---1-1--|----2-2---2-2--|
D |---------------|---------0------|---------------|---0-----0-----|
A |---------------|--0-------------|---------------|---------------|
E |---2-----0-----|----------------|---2-----0-----|---------------|

  Chorus:
      D               D               D               E(↓)
E |----2-2---2-2--|----2-2---2-2--|----2-2---2-2--|----2-2---------|
B |----3-3---3-3--|----3-3---3-3--|----3-3---3-3--|----3-3---------|
G |----2-2---2-2--|----2-2---2-2--|----2-2---2-2--|----2-2---1-----|
D |---0-----0-----|---0-----0-----|---0-----0-----|---0------2-----|
A |---------------|---------------|---------------|----------2-----|
E |---------------|---------------|---------------|----------------|

      D     E         F#m   A         D     E         A      E
E |----2-2---0-0--|----2-2---2-2--|----2-2---0-0--|----2-2----0-0--|
B |----3-3---0-0--|----2-2---2-2--|----3-3---0-0--|----2-2----0-0--|
G |----2-2---1-1--|----2-2---2-2--|----2-2---1-1--|----2-2----1-1--|
D |---0-----------|---------------|---0-----------|----------------|
A |---------------|---------0-----|---------------|---0------------|
E |---------0-----|---2-----------|---------0-----|----------0-----|

      D     E         A     E        Bm               D     E
E |----2-2---0-0--|----2-2---0-0--|---------------|----2-2---0-0--|
B |----3-3---0-0--|----2-2---0-0--|----3-3---3-3--|----3-3---0-0--|
G |----2-2---1-1--|----2-2---1-1--|----4-4---4-4--|----2-2---1-1--|
D |---0-----------|---------------|---------------|---0-----------|
A |---------------|---0-----------|---2-----2-----|---------------|
E |---------0-----|---------0-----|---------------|---------0-----|

     F#m    E         A     D         F#m   E         D
E |----2-2---0-0--|----2-2---2-2--|----2-2---0-0--|----2-2---2-2--|
B |----2-2---0-0--|----2-2---3-3--|----2-2---0-0--|----3-3---3-3--|
G |----2-2---1-1--|----2-2---2-2--|----2-2---1-1--|----2-2---2-2--|
D |---------------|---------0-----|---------------|---0-----0-----|
A |---------------|---0-----------|---------------|---------------|
E |---2-----0-----|---------------|---2-----0-----|---------------|

Couplet:

     F#m    E        A   b c# D        F#m   E         D
E |----2-2---0-0--|---2--------2-2-|----2-2---0-0--|----2-2---2-2--|
B |----2-2---0-0--|---2--------3-3-|----2-2---0-0--|----3-3---3-3--|
G |----2-2---1-1--|---2--------2-2-|----2-2---1-1--|----2-2---2-2--|
D |---------------|-----------0----|---------------|---0-----0-----|
A |---------------|--0---2-3-------|---------------|---------------|
E |---2-----0-----|----------------|---2-----0-----|---------------|
      F#m   E        A      D          F#m   E         D
E |----2-2---0-0--|---2-2----2-2---|----2-2---0-0--|----2-2---2-2--|
B |----2-2---0-0--|---2-2----3-3---|----2-2---0-0--|----3-3---3-3--|
G |----2-2---1-1--|---2-2----2-2---|----2-2---1-1--|----2-2---2-2--|
D |---------------|---------0------|---------------|---0-----0-----|
A |---------------|--0-------------|---------------|---------------|
E |---2-----0-----|----------------|---2-----0-----|---------------|

  Chorus:
                                                                                  D      
            D               D            E (↓)
E |----2-2---2-2--|----2-2---2-2--|----2-2---2-2--|----2-2---------|
B |----3-3---3-3--|----3-3---3-3--|----3-3---3-3--|----3-3---------|
G |----2-2---2-2--|----2-2---2-2--|----2-2---2-2--|----2-2---1-----|
D |---0-----0-----|---0-----0-----|---0-----0-----|---0------2-----|
A |---------------|---------------|---------------|----------2-----|
E |---------------|---------------|---------------|----------------|

      D     E         F#m   A         D     E         A      E
E |----2-2---0-0--|----2-2---2-2--|----2-2---0-0--|----2-2----0-0--|
B |----3-3---0-0--|----2-2---2-2--|----3-3---0-0--|----2-2----0-0--|
G |----2-2---1-1--|----2-2---2-2--|----2-2---1-1--|----2-2----1-1--|
D |---0-----------|---------------|---0-----------|----------------|
A |---------------|---------0-----|---------------|---0------------|
E |---------0-----|---2-----------|---------0-----|----------0-----|

      D     E         A     E        Bm               D     E
E |----2-2---0-0--|----2-2---0-0--|---------------|----2-2---0-0--|
B |----3-3---0-0--|----2-2---0-0--|----3-3---3-3--|----3-3---0-0--|
G |----2-2---1-1--|----2-2---1-1--|----4-4---4-4--|----2-2---1-1--|
D |---0-----------|---------------|---------------|---0-----------|
A |---------------|---0-----------|---2-----2-----|---------------|
E |---------0-----|---------0-----|---------------|---------0-----|

  Bridge:
      D               E               D               E
E |----2-2---2-2--|----0-0---0-0--|----2-2---2-2--|----0-0---0-0--|
B |----3-3---2-2--|----0-0---0-0--|----3-3---3-3--|----0-0---0-0--|
G |----2-2---2-2--|----1-1---1-1--|----2-2---2-2--|----1-1---1-1--|
D |---0-----0-----|---------------|---0-----0-----|---------------|
A |---------------|---------------|---------------|---------------|
E |---------------|---0-----0-----|---------------|---0-----0-----|

      D               A               Bm              D
E |----2-2---2-2--|----2-2---2-2--|---------------|----2-2---2-2--|
B |----3-3---2-2--|----2-2---2-2--|----3-3---3-3--|----3-3---3-3--|
G |----2-2---2-2--|----2-2---2-2--|----4-4---4-4--|----2-2---2-2--|
D |---0-----0-----|---------------|---------------|---0-----0-----|
A |---------------|---0-----0-----|---2-----2-----|---------------|
E |---------------|---------------|---------------|---------------|

  Chorus:
      D               D               D               D     E
E |----2-2---2-2--|----2-2---2-2--|----2-2---2-2--|----2-2---0-0--|
B |----3-3---3-3--|----3-3---3-3--|----3-3---3-3--|----3-3---0-0--|
G |----2-2---2-2--|----2-2---2-2--|----2-2---2-2--|----2-2---1-1--|
D |---0-----0-----|---0-----0-----|---0-----0-----|---0-----------|
A |---------------|---------------|---------------|---------------|
E |---------------|---------------|---------------|---------0-----|

      D     E         F#m   A         D     E         A     E
E |----2-2---0-0--|----2-2---2-2--|----2-2---0-0--|----2-2---0-0--|
B |----3-3---0-0--|----2-2---2-2--|----3-3---0-0--|----2-2---0-0--|
G |----2-2---1-1--|----2-2---2-2--|----2-2---1-1--|----2-2---1-1--|
D |---0-----------|---------------|---0-----------|---0-----------|
A |---------------|---------0-----|---------------|---------------|
E |---------0-----|---2-----------|---------0-----|---------0-----|

      D     E         A     E         Bm              D     E
E |----2-2---0-0--|----2-2---0-0--|---------------|----2-2---0-0--|
B |----3-3---0-0--|----2-2---0-0--|----3-3---3-3--|----3-3---0-0--|
G |----2-2---1-1--|----2-2---1-1--|----4-4---4-4--|----2-2---1-1--|
D |---0-----------|---------------|---------------|---0-----------|
A |---------------|---0-----------|---2-----2-----|---------------|
E |---------0-----|---------0-----|---------------|---------0-----|
      D     E         F#m   A         D     E         A      E
E |----2-2---0-0--|----2-2---2-2--|----2-2---0-0--|----2-2----0-0--|
B |----3-3---0-0--|----2-2---2-2--|----3-3---0-0--|----2-2----0-0--|
G |----2-2---1-1--|----2-2---2-2--|----2-2---1-1--|----2-2----1-1--|
D |---0-----------|---------------|---0-----------|----------------|
A |---------------|---------0-----|---------------|---0------------|
E |---------0-----|---2-----------|---------0-----|----------0-----|

      D     E         A     E        Bm               D
E |----2-2---0-0--|----2-2---0-0--|---------------|----2-2---2-2---|
B |----3-3---0-0--|----2-2---0-0--|----3-3---3-3--|----3-3---3-3---|
G |----2-2---1-1--|----2-2---1-1--|----4-4---4-4--|----2-2---2-2---|
D |---0-----------|---------------|---------------|---0-----0------|
A |---------------|---0-----------|---2-----2-----|----------------|
E |---------0-----|---------0-----|---------------|----------------|

      D             A                 A                 A
E |----2-2---2-2--|---------0-------|---------0-------|---------0-------|
B |----3-3---3-3--|-----2-------2---|-----2-------2---|-----2-------2---|
G |----2-2---2-2--|---2---2---2---2-|---2---2---2---2-|---2---2---2---2-|
D |---0-----0-----|-----------------|-----------------|-----------------|
A |---------------|-0---------------|-0---------------|-0---------------|
E |---------------|-----------------|-----------------|-----------------|

      A (↓)
E |---0-----------|
B |---2-----------|
G |---2-----------|
D |---2-----------|x
A |---------------|x
E |---------------|x
            

comments powered by Disqus
↑ Back to top | Krezip Tabs for Sweet Goodbyes. Lyrics for acoustic guitar and electric guitar. Tablatures and chords are parodies/interpretations of the original songs. You may use it for private study, scholarship, research or language learning purposes only