» » »

Krezip, Sweet Goodbyes Tabs (ver.1)

Artists:  A B C D E F G H I J K L M N O P Q R S T U V W X Y Z # 

Sweet Goodbyes Tabs (ver.1)

Krezip Tabs
Rating:
4/5 (21 vote)
Sweet Goodbyes lessons Tabs too difficult? Try these video lessons and learn fast
                -------------------------------------------------------------------------------
-------------------------------------------------------------------------------

Tuning: Standard - eBGDAE

Capo on 4th fret

- UPDATE: (21st of february 2010)
I got an email from Remco Schrijver, who commented on my intro.
He thought it'd be better like this:
e|----0-----0-------------------------0-------------7-----------5----------|
B|----0-----0-----3-----3-----3-------5-----5-------8----8------7-----7----|
G|----0-----0-----2-----2-----0-------0-----0-------0----0------0-----0----|
D|----------------0-----0-----0--------------------------------------------|
A|------------------------------0-2-3----3------/7-----7-----5------5------|
E|-0-----0-----2-----2-----3-----------------------------------------------|

e|----3-----0-----3-----0-----------|
B|----5-----5-----5-----5-----------|
G|----0-----0-----0-----0-----------| (x2)
D|----------------------------------|
A|-3-----3-----3-----3--------------|
E|----------------------------------|

You should see for youself which one you like better, the above one, or the one below 


Intro

e|----0-----0-----2-----2-----3-------3-----3-------7-----------5----------|
B|----0-----0-----3-----3-----0-------0-----0-------8-----------7----------|
G|----0-----0-----2-----2-----0-------0-----0------------9------------7----|
D|-------------------------------------------------------------------------|
A|------------------------------0-2-3----3------/7-----7-----5------5------|
E|-0-----0-----2-----2-----3-----------------------------------------------|

e|----3-----0-----3-----0-----------|
B|----0-----0-----0-----0-----------|
G|----0-----0-----0-----0-----------| (x2)
D|----------------------------------|
A|-3-----3-----3-----3--------------|
E|----------------------------------|

Verse

e|----0-----0-----2-----2-----3-------3-----3-----0-----0------0-----0--|
B|----0-----0-----3-----3-----0-------0-----0-----0-----0------3-----3--|
G|----0-----0-----2-----2-----0-------0-----0-----0-----0------0-----0--|
D|----------------------------------------------------------------------|
A|------------------------------0-2-3----3-----------------/5-----5-----|
E|-0-----0-----2-----2-----3-------------------0-----0------------------|

e|----0-----0-----0-----0-----------------|
B|----1-----1-----1-----1-----------------|
G|----0-----0-----0-----0-----------------| (x2)
D|----------------------------------------|
A|-3-----3-----3-----3--------------------|
E|----------------------------------------|

Pre-chorus

e|----0-----0-----0-----0-----0-----0-----0-----0-|
B|----1-----1-----0-----0-----1-----1-----0-----0-|
G|----0-----0-----0-----0-----0-----0-----0-----0-|
D|------------------------------------------------|
A|-3-----3-----3-----3-----3-----3-----3-----3----|
E|------------------------------------------------|

e|----0-----0-----0-----0-----0-----0----0-----|
B|----1-----1-----0-----0-----1-----1----3-----|
G|----0-----0-----0-----0-----0-----0----0-----|
D|---------------------------------------------|
A|-3-----3-----3-----3-----3-----3-------5-----|
E|---------------------------------------------|

Chorus

e|----0-----0-----0-----0-----0-----0-----0-----0--|
B|----1-----1-----3-----3-----0-----0-----0-----0--|
G|----0-----0-----0-----0-----0-----0-----2-----0--|
D|-------------------------------------------------|
A|-3-----3-----5-----5-----------------2-----2-----|
E|-------------------------0-----0-----------------|

e|----0-----0-----0-----0-----0-----0-----0-----0--|
B|----1-----1-----3-----3-----0-----0-----0-----0--|
G|----0-----0-----0-----0-----0-----0-----2-----0--|
D|-------------------------------------------------|
A|-3-----3-----5-----5-----------------------------|
E|-------------------------3-----3-----2-----2-----|

e|----0-----0-----0-----0-----0-----0-----0-----0--|
B|----1-----1-----3-----3-----0-----0-----0-----0--|
G|----0-----0-----0-----0-----0-----0-----2-----0--|
D|-------------------------------------------------|
A|-3-----3-----5-----5-----------------------------|
E|-------------------------3-----3-----2-----2-----|

e|----0-----0-----0-----0-----0-----0-----0-----0---|
B|----1-----3-----1-----3-----3-----5-----3-----5---|
G|----0-----0-----0-----0-----0-----0-----0-----0---|
D|--------------------------------------------------|
A|-3-----3-----3-----3-----5-----5-----5-----5------|
E|--------------------------------------------------|

e|----0-----0-----2-----2-----3-------3-----3-------7-----------5--------|
B|----0-----0-----3-----3-----0-------0-----0-------8-----------7--------|
G|----0-----0-----2-----2-----0-------0-----0------------9------------7--|
D|-----------------------------------------------------------------------|
A|------------------------------0-2-3----3------/7-----7-----5------5----|
E|-0-----0-----2-----2-----3---------------------------------------------|

e|----3-----0-----3-----0-----------|
B|----0-----0-----0-----0-----------|
G|----0-----0-----0-----0-----------|
D|----------------------------------|
A|-3-----3-----3-----3--------------|
E|----------------------------------|

Verse

e|----0-----0-----2-----2-----3-------3-----3-----0-----0-|
B|----0-----0-----3-----3-----0-------0-----0-----0-----0-|
G|----0-----0-----2-----2-----0-------0-----0-----0-----0-|
D|--------------------------------------------------------|
A|------------------------------0-2-3----3----------------|
E|-0-----0-----2-----2-----3-------------------0-----0----|

e|---0------0-----0-----0-----0-----0--|
B|---3------5-----3-----5-----3-----5--|
G|---0------0-----0-----0-----0-----0--|
D|-------------------------------------|
A|/5-----5-----5-----5-----5-----5-----|
E|-------------------------------------|

e|----0-----0-----2-----2-----3-------3-----3-----0-----0-|
B|----0-----0-----3-----3-----0-------0-----0-----0-----0-|
G|----0-----0-----2-----2-----0-------0-----0-----0-----0-|
D|--------------------------------------------------------|
A|------------------------------0-2-3----3----------------|
E|-0-----0-----2-----2-----3-------------------0-----0----|


e|----------------0-----3-----0-----0--|
B|---3------------3-----0-----3-----0--|
G|---0------0-----0-----0-----0-----0--|
D|-------------------------------------|
A|/5-----5-----5-----5-----5-----5-----|
E|-------------------------------------|


Pre-chorus

e|----0-----0-----0-----0-----0-----0-----0-----0-|
B|----1-----1-----0-----0-----1-----1-----0-----0-|
G|----0-----0-----0-----0-----0-----0-----0-----0-|
D|------------------------------------------------|
A|-3-----3-----3-----3-----3-----3-----3-----3----|
E|------------------------------------------------|

e|----0-----0-----0-----0-----0-----0----0-----|
B|----1-----1-----1-----1-----1-----1----3-----|
G|----0-----0-----0-----0-----0-----0----0-----|
D|---------------------------------------------|
A|-3-----3-----3-----3-----3-----3-------5-----|
E|---------------------------------------------|


Chorus

e|----0-----0-----0-----0-----0-----0-----0-----0--|
B|----1-----1-----3-----3-----0-----0-----0-----0--|
G|----0-----0-----0-----0-----0-----0-----2-----0--|
D|-------------------------------------------------|
A|-3-----3-----5-----5-----------------2-----2-----|
E|-------------------------0-----0-----------------|

e|----0-----0-----0-----0-----0-----0-----0-----0--|
B|----1-----1-----3-----3-----0-----0-----0-----0--|
G|----0-----0-----0-----0-----0-----0-----2-----0--|
D|-------------------------------------------------|
A|-3-----3-----5-----5-----------------------------|
E|-------------------------3-----3-----2-----2-----|

e|----0-----0-----0-----0-----0-----0-----0-----0--|
B|----1-----1-----3-----3-----0-----0-----0-----0--|
G|----0-----0-----0-----0-----0-----0-----2-----0--|
D|-------------------------------------------------|
A|-3-----3-----5-----5-----------------------------|
E|-------------------------3-----3-----2-----2-----|

e|----0-----0-----0-----0-----0-----0-----0-----0---|
B|----1-----3-----1-----3-----3-----5-----3-----5---|
G|----0-----0-----0-----0-----0-----0-----0-----0---|
D|--------------------------------------------------|
A|-3-----3-----3-----3----/5-----5-----5-----5------|
E|--------------------------------------------------|

Bridge

e|----3-----3-----3-----3-----2-----2-----2-----2--|
B|----3-----3-----3-----3-----3-----3-----3-----3--|
G|----0-----0-----0-----0-----0-----0-----0-----0--|
D|-------------------------------------------------|
A|-3-----3-----3-----3-----------------------------|
E|-------------------------0-----0-----0-----0-----|

e|----3-----3-----3-----3-----2-----2-----0-----0--|
B|----3-----3-----3-----3-----3-----3-----0-----0--|
G|----0-----0-----0-----0-----0-----0-----2-----0--|
D|-------------------------------------------------|
A|-3-----3-----3-----3-----------------------------|
E|-------------------------0-----0-----2-----2-----|


e|----3-----3-----3-----3--------------------------------------------------|
B|----3-----3-----3-----3-----3-----3-----3-----3-----1-----1-----1-----1--|
G|----0-----0-----0-----0-----2-----2-----2-----0-----0-----0-----0-----0--|
D|-------------------------------------------------------------------------|
A|-3-----3-----3-----3-----2-----2-----2-----2-----0-----0-----0-----0-----|
E|-------------------------------------------------------------------------|

e|---------------------------------------------------|
B|----1-----1-----1-----1-----5-----5-----5-----5----|
G|----0-----0-----0-----0-----0-----0-----0-----0----|
D|---------------------------------------------------|
A|-0-----0-----0-----0-----5-----5-----5-----5-------|
E|---------------------------------------------------|

Pre-chorus


e|----0-----0-----0-----0-----0-----0-----0-----0-|
B|----1-----1-----0-----0-----1-----1-----0-----0-|
G|----0-----0-----0-----0-----0-----0-----0-----0-|
D|------------------------------------------------|
A|-3-----3-----3-----3-----3-----3-----3-----3----|
E|------------------------------------------------|

e|----0-----0-----0-----0-----0-----0----0-----|
B|----1-----1-----0-----0-----1-----1----3-----|
G|----0-----0-----0-----0-----0-----0----0-----|
D|---------------------------------------------|
A|-3-----3-----3-----3-----3-----3-------5-----|
E|---------------------------------------------|

Chorus (x2)

e|----0-----0-----0-----0-----0-----0-----0-----0--|
B|----1-----1-----3-----3-----0-----0-----0-----0--|
G|----0-----0-----0-----0-----0-----0-----2-----0--|
D|-------------------------------------------------|
A|-3-----3-----5-----5-----------------2-----2-----|
E|-------------------------0-----0-----------------|

e|----0-----0-----0-----0-----0-----0-----0-----0--|
B|----1-----1-----3-----3-----0-----0-----0-----0--|
G|----0-----0-----0-----0-----0-----0-----2-----0--|
D|-------------------------------------------------|
A|-3-----3-----5-----5-----------------------------|
E|-------------------------3-----3-----2-----2-----|

e|----0-----0-----0-----0-----0-----0-----0-----0--|
B|----1-----1-----3-----3-----0-----0-----0-----0--|
G|----0-----0-----0-----0-----0-----0-----2-----0--|
D|-------------------------------------------------|
A|-3-----3-----5-----5-----------------------------|
E|-------------------------3-----3-----2-----2-----|

e|----0-----0-----0-----0-----0-----0-----0-----0---|
B|----1-----3-----1-----3-----3-----5-----3-----5---|
G|----0-----0-----0-----0-----0-----0-----0-----0---|
D|--------------------------------------------------|
A|-3-----3-----3-----3----/5-----5-----5-----5------|
E|--------------------------------------------------|

Outro (directly after chorus for the 2d time)

e|----0-----0-----0-----0-|
B|----3-----5-----3-----5-|
G|----0-----0-----0-----0-|
D|------------------------|
A|-5-----5-----5-----5----|
E|------------------------|

e|-----------------------------------------------------2----3---|
B|----3-----3----------3------3----------3-----3------------0---|
G|------0-----0---0------0------0---0------0-----0----------0---|
D|--------0-----0----------0------0----------0--------------0---|
A|----------------------------------------------------------0---|
E|-3-----------------3-----------------3--------------------3---|


Lyrics:

(Intro)

(Verse)
Can't sleep 'cause everything's changing
You don't want to leave things behind
Can't breathe there’s too many things going on going wrong in your life

(Pre-chorus)
Tears in your eyes
Sweet goodbyes

(Chorus)
I know how you feel right now
Losing dreams you've come to care about
I know what you need right now
You need to come on home so I can hold you tight
Get you through the night
I'll get you trough the night

(Verse)
Wake up, the sun's shining bright lets go out of bed into the light
Shape up, we won't forget still there's lots of love left to hold tight

(Pre-chorus)
Tears in your eyes
Sweet goodbyes

(Chorus)
I know how you feel right now
Losing dreams you've come to care about
I know what you need right now
You need to come on home so I can hold you tight
Get you through the night

(Bridge)
Everything I love between us will get us trough the night
All the things we lost will teach us see the pretty things in life
All the places that we've been to
The people we relate to
All the loving we give in to

(Pre-chorus)
Blow the tears from our eyes
Sweet goodbyes

(Chorus)
I know how you feel right now
Losing dreams you've come to care about
I know what you need right now
You need to come on home so I can hold you tight

I know how you feel right now
Losing dreams you've come to care about
I know what you need right now
You need to come on home so I can hold you tight

I'll get you trough the night

(Outro)


| /  slide up
| \  slide down
| h  hammer-on
| p  pull-off
| ~  vibrato
| +  harmonic
| x  Mute note
===============================================================================
            

comments powered by Disqus
↑ Back to top | Krezip Tabs for Sweet Goodbyes. Lyrics for acoustic guitar and electric guitar. Tablatures and chords are parodies/interpretations of the original songs. You may use it for private study, scholarship, research or language learning purposes only