» » »

Krezip, Sweet Goodbyes Bass tabs (ver.1)

Artists:  A B C D E F G H I J K L M N O P Q R S T U V W X Y Z # 

Sweet Goodbyes Bass tabs (ver.1)

Krezip Tabs
 Rating:
4.4/5 (7 votes)
Sweet Goodbyes lessons Tabs too difficult? Try these video lessons and learn fast
1
                Krezip - Sweet Goodbyes
-----------------------------------------------------------------



G|-----------11--------------------------------------------------|
D|--------122--442222--------------------------------------------|	(4x)
A|--112-4--------------------------------------------------------|
E|44-------------------------------------------------------------|

G|---------|--------|--------|--------|--------|-----------------|
D|222222222|22222224|2244--11|2244----|2244----|----4444---------|
A|---------|--------|----22--|----2211|----2211|4444-------------|
E|---------|--------|--------|--------|--------|-----------------|

G|-----------11--------------------------------------------------|
D|--------122--442222--------------------------------------------|	(3x)
A|--112-4--------------------------------------------------------|
E|44-------------------------------------------------------------|

G|---------|--------|--------|--------|--------|-----------------|
D|222222222|22222224|2244--11|2244----|2244----|----4444---------|
A|---------|--------|----22--|----2211|----2211|4444-------------|
E|---------|--------|--------|--------|--------|-----------------|

G|----1111|----1111|--------|--------|---------------------------|
D|2222----|2222----|22221111|----4444|---------------------------|
A|--------|--------|--------|4444----|---------------------------|
E|--------|--------|--------|--------|---------------------------|

G|---------|--------|--------|--------|--------|-----------------|
D|222222222|22222224|2244--11|2244----|2244----|----4444---------|
A|---------|--------|----22--|----2211|----2211|4444-------------|
E|---------|--------|--------|--------|--------|-----------------|

G|--------|--------|--------|--------|--------|------------------|
D|2244--11|2244--11|2244----|----4444|4444---4|---44---4---------|
A|----22--|----22--|----2211|4444----|----2---|2----2----2-------|
E|--------|--------|--------|--------|--------|------------------|
            
Submit corrections

comments powered by Disqus
↑ Back to top | Krezip Bass for Sweet Goodbyes. Lyrics for acoustic guitar and electric guitar. 1 Tablatures and chords are parodies/interpretations of the original songs. You may use it for private study, scholarship, research or language learning purposes only