» » »

Kool And The Gang, Celebration Bass tabs (ver.2)

Artists:  A B C D E F G H I J K L M N O P Q R S T U V W X Y Z # 

Celebration Bass tabs (ver.2)

Kool And The Gang Tabs
 Rating:
4/5 (4 votes)
Celebration lessons Tabs too difficult? Try these video lessons and learn fast
1
                Band: Kool and the Gang
Tuning: Standard(E-A-D-G)
Difficulty: Easy



Riff :

G|-----------------------------------------------|
D|-----------------------------------------------|
A|-----------------------------------------------|
E|-1--1--2--2----1---2---1--4--4--4--4-4---------|x7


G|---------------------------------|
D|---------------------------------|
A|---------------------------------|
E|-1--1--2--2----1---2---1--4------|

Chorus 1 :

G|-------------------------|------------------------------|
D|-------------------------|------------------------------|
A|-------------------------|------------------------------|
E|-4---4---4---4---4-----4-|--4---4---4---4-4-------------|x8

G|-------------------------|------------------------------|
D|-------------------------|------------------------------|
A|-4---4---4---4---4-----4-|--3---3---3---3-3-------------|
E|-------------------------|------------------------------|

G|-------------------------|------------------------------|
D|-------------------------|------------------------------|
A|-------------------------|------------------------------|
E|-1---1---1---1---1-----1-|--1---1---1---1-1-------------|

G|-------------------------|------------------------------|
D|-------------------------|------------------------------|
A|-1---1---1---1---1-----1-|--6------6------6--6--6-------|
E|-------------------------|------------------------------|

Riff :

G|-----------------------------------------------|
D|-----------------------------------------------|
A|-----------------------------------------------|
E|-1--1--2--2----1---2---1--4--4--4--4-4---------|x7


G|---------------------------------|
D|---------------------------------|
A|---------------------------------|
E|-1--1--2--2----1---2---1--4------|

Chorus 1 :

G|-------------------------|------------------------------|
D|-------------------------|------------------------------|
A|-------------------------|------------------------------|
E|-4---4---4---4---4-----4-|--4---4---4---4-4-------------|x8

G|-------------------------|------------------------------|
D|-------------------------|------------------------------|
A|-4---4---4---4---4-----4-|--3---3---3---3-3-------------|
E|-------------------------|------------------------------|

G|-------------------------|------------------------------|
D|-------------------------|------------------------------|
A|-------------------------|------------------------------|
E|-1---1---1---1---1-----1-|--1---1---1---1-1-------------|

G|-------------------------|------------------------------|
D|-------------------------|------------------------------|
A|-1---1---1---1---1-----1-|--6------6------6--6--6-------|
E|-------------------------|------------------------------|

Riff :

G|-----------------------------------------------|
D|-----------------------------------------------|
A|-----------------------------------------------|
E|-1--1--2--2----1---2---1--4--4--4--4-4---------|x7


G|---------------------------------|
D|---------------------------------|
A|---------------------------------|
E|-1--1--2--2----1---2---1--4------|

Chorus 2 :

G|-------------------------|------------------------------|
D|-------------------------|------------------------------|
A|-------------------------|------------------------------|
E|-4---4---4---4---4-----4-|--4---4---4---4-4-------------|x8

End : ( all time the riff )

G|-----------------------------------------------|
D|-----------------------------------------------|
A|-----------------------------------------------|
E|-1--1--2--2----1---2---1--4--4--4--4-4---------|

| /  slide up
| \  slide down
| h  hammer-on
| p  pull-off
| ~  vibrato
| +  harmonic
| x  Mute note
            
Submit corrections

comments powered by Disqus
↑ Back to top | Kool And The Gang Bass for Celebration. Lyrics for acoustic guitar and electric guitar. 1 Tablatures and chords are parodies/interpretations of the original songs. You may use it for private study, scholarship, research or language learning purposes only