» » »

Kool And The Gang, Celebration Bass tabs (ver.1)

Artists:  A B C D E F G H I J K L M N O P Q R S T U V W X Y Z # 

Celebration Bass tabs (ver.1)

Kool And The Gang Tabs
 Rating:
3.8/5 (5 votes)
Celebration lessons Tabs too difficult? Try these video lessons and learn fast
                                                  Celebration                                   


                                                               Kool and the Gang
Bass



F#||-------|-------|-------|-------|-------|-------|-------|-------|-------|
C#||-------|-------|-------|-------|-------|-------|-------|-------|-------|
G#||-------|-------|-------|-------|-------|-------|-------|-------|-------|
D#||-------|-------|-------|-------|-------|-------|-------|-------|-------|


  E  E  E  E  E  E  E  E     E  S E  S E  E  E  E  S S  
--------------------------|----------------------------|
--------------------------|----------------------------|
--------------------------|----------------------------|
-----2--2--3--3-----2-----|--2----2----5--L--5--5--5-5-|


  E  E  E  E  E  E  E  E     E  S E  S E  E  E  E  S S  
--------------------------|----------------------------|
--------------------------|----------------------------|
--------------------------|----------------------------|
-----2--2--3--3-----2-----|--2----2----5--L--5--5--5-5-|


  E  E  E  E  E  E  E  E     E  S E  S E  E  E  E  S S  
--------------------------|----------------------------|
--------------------------|----------------------------|
--------------------------|----------------------------|
-----2--2--3--3-----2-----|--2----2----5--L--5--5--5-5-|


  E  E  E  E  E  E  E  E     E  S E  S E  E  E  E  S S  
--------------------------|----------------------------|
--------------------------|----------------------------|
--------------------------|----------------------------|
-----2--2--3--3-----2-----|--2----2----5--L--5--5--5-5-|


  E  E  E  E  E  E  E  E     E  S E  S E  E  E  E  S S  
--------------------------|----------------------------|
--------------------------|----------------------------|
--------------------------|----------------------------|
-----2--2--3--3-----2-----|--2----2----5--L--5--5--5-5-|


  E  E  E  E  E  E  E  E     E  S E  S E  E  E  E  S S  
--------------------------|----------------------------|
--------------------------|----------------------------|
--------------------------|----------------------------|
-----2--2--3--3-----2-----|--2----2----5--L--5--5--5-5-|


  E  E  E  E  E  E  E  E     E  S E  S E  E  E  E  S S  
--------------------------|----------------------------|
--------------------------|----------------------------|
--------------------------|----------------------------|
-----2--2--3--3-----2-----|--2----2----5--L--5--5--5-5-|


  E  E  E  E  E  E  E  E     E  S E  S E  H         
--------------------------|------------------------|
--------------------------|------------------------|
--------------------------|------------------------|
-----2--2--3--3-----2-----|--2----2----5--L--------|


  S S S S S S S S E.  S E.  S    S S S S S S S S H         
------------------------------|---------------------------|
------------------------------|---------------------------|
------------------------------|---------------------------|
--5---5---5---5---5-----5-----|--5---5---5---5-5----------|


  S S S S S S S S E.  S E.  S    S S S S S S S S H         
------------------------------|---------------------------|
------------------------------|---------------------------|
------------------------------|---------------------------|
--5---5---5---5---5-----5-----|--5---5---5---5-5----------|


  S S S S S S S S E.  S E.  S    S S S S S S S S H         
------------------------------|---------------------------|
------------------------------|---------------------------|
------------------------------|---------------------------|
--5---5---5---5---5-----5-----|--5---5---5---5-5----------|


  S S S S S S S S E.  S E.  S    S S S S S S S S H         
------------------------------|---------------------------|
------------------------------|---------------------------|
------------------------------|---------------------------|
--5---5---5---5---5-----5-----|--5---5---5---5-5----------|


  S S S S S S S S E.  S E.  S    S S S S S S S S H         
------------------------------|---------------------------|
------------------------------|---------------------------|
------------------------------|---------------------------|
--5---5---5---5---5-----5-----|--5---5---5---5-5----------|


  S S S S S S S S E.  S E.  S    S S S S S S S S H         
------------------------------|---------------------------|
------------------------------|---------------------------|
------------------------------|---------------------------|
--5---5---5---5---5-----5-----|--5---5---5---5-5----------|


  S S S S S S S S E.  S E.  S    S S S S S S S S H         
------------------------------|---------------------------|
------------------------------|---------------------------|
------------------------------|---------------------------|
--5---5---5---5---5-----5-----|--5---5---5---5-5----------|


  S S S S S S S S E.  S E.  S    S S S S S S S S H         
------------------------------|---------------------------|
------------------------------|---------------------------|
------------------------------|---------------------------|
--5---5---5---5---5-----5-----|--5---5---5---5-5----------|


  S S S S S S S S E.  S E.  S    S S S S S S S S H         
------------------------------|---------------------------|
------------------------------|---------------------------|
--5---5---5---5---5-----5-----|--4---4---4---4-4----------|
------------------------------|---------------------------|


  S S S S S S S S E.  S E.  S    S S S S S S S S H         
------------------------------|---------------------------|
------------------------------|---------------------------|
------------------------------|---------------------------|
--2---2---2---2---2-----2-----|--2---2---2---2-2----------|


  S S S S S S S S E.  S E.  S    E.  S E.  S E  E  E.  S  
------------------------------|--------------------------|
------------------------------|--------------------------|
--2---2---2---2---2-----2-----|--7-----7-----7--7--7-----|
------------------------------|--------------------------|


  E  E  E  E  E  E  E  E     E  S E  S E  E  E  E  S S  
--------------------------|----------------------------|
--------------------------|----------------------------|
--------------------------|----------------------------|
-----2--2--3--3-----2-----|--2----2----5--L--5--5--5-5-|


  E  E  E  E  E  E  E  E     E  S E  S E  E  E  E  S S  
--------------------------|----------------------------|
--------------------------|----------------------------|
--------------------------|----------------------------|
-----2--2--3--3-----2-----|--2----2----5--L--5--5--5-5-|


  E  E  E  E  E  E  E  E     E  S E  S E  E  E  E  S S  
--------------------------|----------------------------|
--------------------------|----------------------------|
--------------------------|----------------------------|
-----2--2--3--3-----2-----|--2----2----5--L--5--5--5-5-|


  E  E  E  E  E  E  E  E     E  S E  S E  E  E  E  S S  
--------------------------|----------------------------|
--------------------------|----------------------------|
--------------------------|----------------------------|
-----2--2--3--3-----2-----|--2----2----5--L--5--5--5-5-|


  E  E  E  E  E  E  E  E     E  S E  S E  E  E  E  S S  
--------------------------|----------------------------|
--------------------------|----------------------------|
--------------------------|----------------------------|
-----2--2--3--3-----2-----|--2----2----5--L--5--5--5-5-|


  E  E  E  E  E  E  E  E     E  S E  S E  E  E  E  S S  
--------------------------|----------------------------|
--------------------------|----------------------------|
--------------------------|----------------------------|
-----2--2--3--3-----2-----|--2----2----5--L--5--5--5-5-|


  E  E  E  E  E  E  E  E     E  S E  S E  E  E  E  S S  
--------------------------|----------------------------|
--------------------------|----------------------------|
--------------------------|----------------------------|
-----2--2--3--3-----2-----|--2----2----5--L--5--5--5-5-|


  E  E  E  E  E  E  E  E     E  S E  S E  H         
--------------------------|------------------------|
--------------------------|------------------------|
--------------------------|------------------------|
-----2--2--3--3-----2-----|--2----2----5--L--------|


  S S S S S S S S E.  S E.  S    S S S S S S S S H         
------------------------------|---------------------------|
------------------------------|---------------------------|
------------------------------|---------------------------|
--5---5---5---5---5-----5-----|--5---5---5---5-5----------|


  S S S S S S S S E.  S E.  S    S S S S S S S S H         
------------------------------|---------------------------|
------------------------------|---------------------------|
------------------------------|---------------------------|
--5---5---5---5---5-----5-----|--5---5---5---5-5----------|


  S S S S S S S S E.  S E.  S    S S S S S S S S H         
------------------------------|---------------------------|
------------------------------|---------------------------|
------------------------------|---------------------------|
--5---5---5---5---5-----5-----|--5---5---5---5-5----------|


  S S S S S S S S E.  S E.  S    S S S S S S S S H         
------------------------------|---------------------------|
------------------------------|---------------------------|
------------------------------|---------------------------|
--5---5---5---5---5-----5-----|--5---5---5---5-5----------|


  S S S S S S S S E.  S E.  S    S S S S S S S S H         
------------------------------|---------------------------|
------------------------------|---------------------------|
------------------------------|---------------------------|
--5---5---5---5---5-----5-----|--5---5---5---5-5----------|


  S S S S S S S S E.  S E.  S    S S S S S S S S H         
------------------------------|---------------------------|
------------------------------|---------------------------|
------------------------------|---------------------------|
--5---5---5---5---5-----5-----|--5---5---5---5-5----------|


  S S S S S S S S E.  S E.  S    S S S S S S S S H         
------------------------------|---------------------------|
------------------------------|---------------------------|
------------------------------|---------------------------|
--5---5---5---5---5-----5-----|--5---5---5---5-5----------|


  S S S S S S S S E.  S E.  S    S S S S S S S S H         
------------------------------|---------------------------|
------------------------------|---------------------------|
------------------------------|---------------------------|
--5---5---5---5---5-----5-----|--5---5---5---5-5----------|


  S S S S S S S S E.  S E.  S    S S S S S S S S H         
------------------------------|---------------------------|
------------------------------|---------------------------|
--5---5---5---5---5-----5-----|--4---4---4---4-4----------|
------------------------------|---------------------------|


  S S S S S S S S E.  S E.  S    S S S S S S S S H         
------------------------------|---------------------------|
------------------------------|---------------------------|
------------------------------|---------------------------|
--2---2---2---2---2-----2-----|--2---2---2---2-2----------|


  S S S S S S S S E.  S E.  S    E.  S E.  S E  E  E.  S  
------------------------------|--------------------------|
------------------------------|--------------------------|
--2---2---2---2---2-----2-----|--7-----7-----7--7--7-----|
------------------------------|--------------------------|


  E  E  E  E  E  E  E  E     E  S E  S E  E  E  E  S S  
--------------------------|----------------------------|
--------------------------|----------------------------|
--------------------------|----------------------------|
-----2--2--3--3-----2-----|--2----2----5--L--5--5--5-5-|


  E  E  E  E  E  E  E  E     E  S E  S E  E  E  E  S S  
--------------------------|----------------------------|
--------------------------|----------------------------|
--------------------------|----------------------------|
-----2--2--3--3-----2-----|--2----2----5--L--5--5--5-5-|


  E  E  E  E  E  E  E  E     E  S E  S E  E  E  E  S S  
--------------------------|----------------------------|
--------------------------|----------------------------|
--------------------------|----------------------------|
-----2--2--3--3-----2-----|--2----2----5--L--5--5--5-5-|


  E  E  E  E  E  E  E  E     E  S E  S E  E  E  E  S S  
--------------------------|----------------------------|
--------------------------|----------------------------|
--------------------------|----------------------------|
-----2--2--3--3-----2-----|--2----2----5--L--5--5--5-5-|


  E  E  E  E  E  E  E  E     E  S E  S E  E  E  E  S S  
--------------------------|----------------------------|
--------------------------|----------------------------|
--------------------------|----------------------------|
-----2--2--3--3-----2-----|--2----2----5--L--5--5--5-5-|


  E  E  E  E  E  E  E  E     E  S E  S E  E  E  E  S S  
--------------------------|----------------------------|
--------------------------|----------------------------|
--------------------------|----------------------------|
-----2--2--3--3-----2-----|--2----2----5--L--5--5--5-5-|


  E  E  E  E  E  E  E  E     E  S E  S E  E  E  E  S S  
--------------------------|----------------------------|
--------------------------|----------------------------|
--------------------------|----------------------------|
-----2--2--3--3-----2-----|--2----2----5--L--5--5--5-5-|


  E  E  E  E  E  E  E  E     E  S E  S E  H         
--------------------------|------------------------|
--------------------------|------------------------|
--------------------------|------------------------|
-----2--2--3--3-----2-----|--2----2----5--L--------|


  S S S S S S S S E.  S E.  S    S S S S S S S S H         
------------------------------|---------------------------|
------------------------------|---------------------------|
------------------------------|---------------------------|
--5---5---5---5---5-----5-----|--5---5---5---5-5----------|


  S S S S S S S S E.  S E.  S    S S S S S S S S H         
------------------------------|---------------------------|
------------------------------|---------------------------|
------------------------------|---------------------------|
--5---5---5---5---5-----5-----|--5---5---5---5-5----------|


  S S S S S S S S E.  S E.  S    S S S S S S S S H         
------------------------------|---------------------------|
------------------------------|---------------------------|
------------------------------|---------------------------|
--5---5---5---5---5-----5-----|--5---5---5---5-5----------|


  S S S S S S S S E.  S E.  S    S S S S S S S S H         
------------------------------|---------------------------|
------------------------------|---------------------------|
------------------------------|---------------------------|
--5---5---5---5---5-----5-----|--5---5---5---5-5----------|


  S S S S S S S S E.  S E.  S    S S S S S S S S H         
------------------------------|---------------------------|
------------------------------|---------------------------|
------------------------------|---------------------------|
--5---5---5---5---5-----5-----|--5---5---5---5-5----------|


  S S S S S S S S E.  S E.  S    S S S S S S S S H         
------------------------------|---------------------------|
------------------------------|---------------------------|
------------------------------|---------------------------|
--5---5---5---5---5-----5-----|--5---5---5---5-5----------|


  S S S S S S S S E.  S E.  S    S S S S S S S S H         
------------------------------|---------------------------|
------------------------------|---------------------------|
------------------------------|---------------------------|
--5---5---5---5---5-----5-----|--5---5---5---5-5----------|


  S S S S S S S S E.  S E.  S    S S S S S S S S H         
------------------------------|---------------------------|
------------------------------|---------------------------|
------------------------------|---------------------------|
--5---5---5---5---5-----5-----|--5---5---5---5-5----------|


  E  E  E  E  E  E  E  E     E  S E  S E  E  E  E  S S  
--------------------------|----------------------------|
--------------------------|----------------------------|
--------------------------|----------------------------|
-----2--2--3--3-----2-----|--2----2----5--L--5--5--5-5-|


  E  E  E  E  E  E  E  E     E  S E  S E  E  E  E  S S  
--------------------------|----------------------------|
--------------------------|----------------------------|
--------------------------|----------------------------|
-----2--2--3--3-----2-----|--2----2----5--L--5--5--5-5-|


  E  E  E  E  E  E  E  E     E  S E  S E  E  E  E  S S  
--------------------------|----------------------------|
--------------------------|----------------------------|
--------------------------|----------------------------|
-----2--2--3--3-----2-----|--2----2----5--L--5--5--5-5-|


  E  E  E  E  E  E  E  E     E  S E  S E  E  E  E  S S  
--------------------------|----------------------------|
--------------------------|----------------------------|
--------------------------|----------------------------|
-----2--2--3--3-----2-----|--2----2----5--L--5--5--5-5-|


  E  E  E  E  E  E  E  E     E  S E  S E  E  E  E  S S  
--------------------------|----------------------------|
--------------------------|----------------------------|
--------------------------|----------------------------|
-----2--2--3--3-----2-----|--2----2----5--L--5--5--5-5-|


  E  E  E  E  E  E  E  E     E  S E  S E  E  E  E  S S  
--------------------------|----------------------------|
--------------------------|----------------------------|
--------------------------|----------------------------|
-----2--2--3--3-----2-----|--2----2----5--L--5--5--5-5-|


  E  E  E  E  E  E  E  E     E  S E  S E  E  E  E  S S  
--------------------------|----------------------------|
--------------------------|----------------------------|
--------------------------|----------------------------|
-----2--2--3--3-----2-----|--2----2----5--L--5--5--5-5-|


  E  E  E  E  E  E  E  E     E  S E  S E  H           E  E  E  E  E  E  E  E   
--------------------------|------------------------|--------------------------|
--------------------------|------------------------|--------------------------|
--------------------------|------------------------|--------------------------|
-----2--2--3--3-----2-----|--2----2----5--L--------|-----2--2--3--3-----2-----|


  E  S E  S E  E  E  E  S S    E  E  E  E  E  E  E  E   
----------------------------|--------------------------|
----------------------------|--------------------------|
----------------------------|--------------------------|
--2----2----5--L--5--5--5-5-|-----2--2--3--3-----2-----|


  E  S E  S E  E  E  E  S S    E  E  E  E  E  E  E  E   
----------------------------|--------------------------|
----------------------------|--------------------------|
----------------------------|--------------------------|
--2----2----5--L--5--5--5-5-|-----2--2--3--3-----2-----|


  E  S E  S E  E  E  E  S S    E  E  E  E  E  E  E  E   
----------------------------|--------------------------|
----------------------------|--------------------------|
----------------------------|--------------------------|
--2----2----5--L--5--5--5-5-|-----2--2--3--3-----2-----|


  E  S E  S E  E  E  E  S S    E  E  E  E  E  E  E  E   
----------------------------|--------------------------|
----------------------------|--------------------------|
----------------------------|--------------------------|
--2----2----5--L--5--5--5-5-|-----2--2--3--3-----2-----|


  E  S E  S E  E  E  E  S S    E  E  E  E  E  E  E  E   
----------------------------|--------------------------|
----------------------------|--------------------------|
----------------------------|--------------------------|
--2----2----5--L--5--5--5-5-|-----2--2--3--3-----2-----|


  E  S E  S E  E  E  E  S S    E  E  E  E  E  E  E  E   
----------------------------|--------------------------|
----------------------------|--------------------------|
----------------------------|--------------------------|
--2----2----5--L--5--5--5-5-|-----2--2--3--3-----2-----|


  E  S E  S E  E  E  E  S S    E  E  E  E  E  E  E  E   
----------------------------|--------------------------|
----------------------------|--------------------------|
----------------------------|--------------------------|
--2----2----5--L--5--5--5-5-|-----2--2--3--3-----2-----|


  E  S E  S E  E  E  E  S S    E  E  E  E  E  E  E  E   
----------------------------|--------------------------|
----------------------------|--------------------------|
----------------------------|--------------------------|
--2----2----5--L--5--5--5-5-|-----2--2--3--3-----2-----|


  E  S E  S E  E  E  E  S S   
----------------------------||
----------------------------||
----------------------------||
--2----2----5--L--5--5--5-5-||
            
Submit corrections

comments powered by Disqus
↑ Back to top | Kool And The Gang Bass for Celebration. Lyrics for acoustic guitar and electric guitar. Tablatures and chords are parodies/interpretations of the original songs. You may use it for private study, scholarship, research or language learning purposes only