» » »

Hollywood Swinging Bass tabs (ver.1)

Artists:  A B C D E F G H I J K L M N O P Q R S T U V W X Y Z # 

Hollywood Swinging Bass tabs (ver.1)

Kool And The Gang
Rating:
4/5 (3 votes)

Hard to play? Try these video lessons and learn fast.
                Band: Kool & The Gang

i just got a kool and the gang greatest hits cd and i saw you didnt have this song 
so i decided to tab it everybody knows this song once you hear its funky ass bassline

Intro with horns

G|----------------------------------------|
D|----------------------4-5-6-------------|
A|----------------------------------------|
E|--0~~~~-----0~~~~----------------000----|
 
Verses/Choruses

G|--------------------------------------------|
D|----------6-4----------4-5-6----6-4---------|
A|--------------7---------------------7-------|
E|-0-0-0-----------0-0-------------------000--|

Outro
       6x                                       4x         play to fade
G|-------|----------------------------------------|-------------|
D|-------|---------6-4--------4-5-6----6-4--------|--6-4--------|
A|-------|-------------7-------------------7------|------7------|
E|-0-0-0-|-0-0-0---------0-0------------------000-|--------0-0--|
            
Hard to play? Try these video lessons and learn fast. | Correct




comments powered by Disqus
↑ Back to top | Tablatures and chords are parodies/interpretations of the original songs. You may use it for private study, scholarship, research or language learning purposes only