» » »

Kool And The Gang, Celebration Tabs (ver.1)

Artists:  A B C D E F G H I J K L M N O P Q R S T U V W X Y Z # 

Celebration Tabs (ver.1)

Kool And The Gang Tabs
 Rating:
3/5 (6 votes)
Celebration lessons Tabs too difficult? Try these video lessons and learn fast
                
Tuning: 1/2 Step Down

Guitar 1:

D#|-------------------------------------------------|
A#|-------------------------------------------------|
F#|-14-14-x--x--14-14-x--14-x--14-x--14-14-14-x--x--|
C#|-x--x--x--x--x--x--x--x--x--x--x--x--x--x--x--x--|
G#|-12-12-x--x--12-12-x--12-x--12-x--12-12-12-x--x--|
D#|-------------------------------------------------|

All the time except for the Verses and the Bridge.
This means you play this in the Intro, Pre-Chorus, Chorus and Outro.

Guitar 2:

Intro & Pre-Chorus:

D#|-------------|--------------------------9--10-12--|
A#|------12b13~~|-10b12r10--10--10-------------------|
F#|-------------|------------------------------------|
C#|-------------|------------------------------------|
G#|-------------|------------------------------------|
D#|-------------|------------------------------------|

D#|-------------|----------------------|-------|----------------------|
A#|------12b13~~|-10b12r10--10--10-----|-------|-10b12r10--10--10-----|
F#|-------------|----------------------|-------|----------------------|
C#|-------------|----------------------|-------|----------------------|
G#|-------------|----------------------|-------|----------------------|
D#|-------------|----------------------|-------|----------------------|

Chorus:

D#|--------------------------9--10-12--|
A#|-10b12r10--10--10-------------------|
F#|------------------------------------|
C#|------------------------------------|
G#|------------------------------------|
D#|------------------------------------|

Leave this 3 notes every second time you play this

Verse:

At the end but before the bridge starts.
When the (celebration) backvoice starts.

D#|-------17-----17------|-----------17-17-17------|
A#|----------------------|-----------17-17-17------|
F#|----------------------|-------------------------|
C#|----------------------|-------------------------|
G#|----------------------|-------------------------|
D#|----------------------|-------------------------|
            
Submit corrections

comments powered by Disqus
↑ Back to top | Kool And The Gang Tabs for Celebration. Lyrics for acoustic guitar and electric guitar. Tablatures and chords are parodies/interpretations of the original songs. You may use it for private study, scholarship, research or language learning purposes only