» » »

Kings Of Convenience, Know How Tabs (ver.2)

Artists:  A B C D E F G H I J K L M N O P Q R S T U V W X Y Z # 

Know How Tabs (ver.2)

Kings Of Convenience Tabs
 Rating:
4/5 (6 votes)
Know How lessons Tabs too difficult? Try these video lessons and learn fast
                
Capo 6th Fret

(I believe I hear some 7th fret harmonic strumming at the beginning)

Em
---------------------------------|
-----x-------x-------x-------x---|
-----x-------x-------x-------x---|
-----x-------x-5-----x-5-----x---|
-----x---2---x-----2-x---2---x---|
-0---x-------x-------x-------x---|
 1 e & a 2 e & a 3 e & a 4 e & a

A
---------------------------------|
-----x-------x-------x-------x---|
-----x-------x-------x-------x---|
-----x---2---x-0---2-x-2-----x---|
-0---x-------x-------x---0---x---|
-----x-------x-------x-------x---|
 1 e & a 2 e & a 3 e & a 4 e & a

F#
---------------------------------|
-----x-------x-------x-------x---|
-----x-------x-------x-------x---|
-----x-------x-2-----x-2-----x---|
-----x---0---x-----0-x---0---x---|
-2---x-------x-------x-------x---|
 1 e & a 2 e & a 3 e & a 4 e & a

G
---------------------------------|
-----x-------x-------x-----------|
-----x-------x-------x-4---2-0---|
-----x-------x-4-----x-----------|
-----x---2---x-----2-x-----------|
-3---x-------x-------x-----------|
 1 e & a 2 e & a 3 e & a 4 e & a
            
Submit corrections

comments powered by Disqus
↑ Back to top | Kings Of Convenience Tabs for Know How. Lyrics for acoustic guitar and electric guitar. Tablatures and chords are parodies/interpretations of the original songs. You may use it for private study, scholarship, research or language learning purposes only