» » »

Know How Tabs (ver.3)

Artists:  A B C D E F G H I J K L M N O P Q R S T U V W X Y Z # 

Know How Tabs (ver.3)

Kings Of Convenience
Rating:
0/5 (0 votes)

Hard to play? Try these video lessons and learn fast.
                Know How - Kings of Convenience

 
Capo 6

I haven't figured out exactly what Erlend plays during the verses, 
but it sounds like patterns of 3 on the first 3 strings, also with a capo 6.

Intro uses same rhythm as the verses using  harmonics on the 5th and 7th fret. 
It's a real groovy song; take it slow, get the timing down, then add the slaps,
then start speeding it up
 
(x) Optional Note
 s  Sixteenth Note
 e  Eighth Note
 T  Percussive tap on body or strings

MAIN RIFF
       T       T       T       T       T       T       T       T
   1   &   2   &   3   &   4   &   1   &   2   &   3   &   4   &   
e|------------------------------------------------------------------|
B|-----------5---5-------5---5---0-----------0---0-------0---0---0--|
G|-----------0---0-------0---0---0-----------6---6-------6---6---0--|
D|-----------3---3-------3---3---0-----------7---7-------7---7---0--|
A|-------2-2---------2-----2-------------7-7-----5---7---5-7--------|
E|-0-------------------------------5--------------------------------|
 
       T       T       T       T               T       T    
   1   &   2   &   3   &   4   &   1   &   2   &   3   &   4   &   
e|-------------------------------------------------------0---0------|
B|----(0)----0---0-------0-------0-----0------0--0------(0)-(0)--0--|
G|----(2)----2---2-------2-------0-----0------0--0-------4---2p0----|
D|----(2)----2---2-------2---------0---4---4----(4)--4--------------|
A|-------0-0---------0-----0---------------------5------------------|
E|-2-------------------------0--------------------------------------|
 
BRIDGE 
let it ring out, especially the transitioning bass notes, sounds orgasmic

   s s s s s s s e   s s s s s e   s s s s s s s e   s s s s s e                
e|---------------0-------------------------------0---------------|
B|---------3---------3-------3-------------0---------0-------0---|
G|-----0-----0-----------0-------------6-----6-----------6-------|
D|-------5-----5-------5-------0---------0-----0-------0-------0-|
A|---2---------------------2---------7---------------------7-----|
E|-0-------------------------------5-----------------------------|

(all sixteenths)
e|---------------0-------------------------------------------------|
B|---------0-------0-------0-------------0---------------0---------|
G|-----2-----2---------2-------0-----0-----0---0-----0-----0---0---|
D|-------2-----2-----2-------0-----4---4-----4-----4---4-----4-----|
A|---0-------------------0-------5---------------5-----------------|
E|-2---------------------------------------------------------------|

During the vocal bridge, they randomly play percussion slapish stuff 
and/or similar riffs to the last one. Then the main riff comes back in, 
with some pretty noticeable variation. Aside from said variation, this is
 99% accurate and sounds great playing along or not.
 
JAM ON BROTHER
            
Hard to play? Try these video lessons and learn fast. | Correct




comments powered by Disqus
↑ Back to top | Tablatures and chords are parodies/interpretations of the original songs. You may use it for private study, scholarship, research or language learning purposes only