» » »

Kings Of Convenience, Know How Tabs (ver.1)

Artists:  A B C D E F G H I J K L M N O P Q R S T U V W X Y Z # 

Know How Tabs (ver.1)

Kings Of Convenience Tabs
 Rating:
3.7/5 (6 votes)
Know How lessons Tabs too difficult? Try these video lessons and learn fast
1
                Know How by Kings Of Convenience
Standard Tuning

Guitar 1
|--------------------------------------------------------------|
|-----2---2--------------------------------------------6-4-2---|
|-----------------------------------3---3--------5---5---------|
|---3---3---3-3----8-6-8-6-8-8----1---1---1-1--6---6-----------|
|-1--------------6--------------3------------------------------|
|--------------------------------------------------------------|

Guitar 2
|-4-4--4--4-4-4--4-4--4--4-4-4--4-4--4--4-4-4--4-4--4--6-6-6---|
|-2-2--2--2-2-2--6-6--6--6-6-6--6-6--6--6-6-6--6-6--6--6-6-6---|
|-3-3--3--3-3-3--6-6--6--6-6-6--6-6--6--6-6-6--6-6--6--6-6-6---|
|--------------------------------------------------------------|
|--------------------------------------------------------------|
|--------------------------------------------------------------|

Guitar 3?
|---13--13--13---11-9-6----8---8---8---6-4-6---11--11--11--9-8-6---8--8--8--6---|
|-9---9---9---9---------8---8---8---8--------8---8---8---8-------6--6--6--6-----|
|--10--10--10--10--------10--10--10--10-------8---8---8---8-------6--6--6--6----|
|-------------------------------------------------------------------------------|
|-------------------------------------------------------------------------------|
|-------------------------------------------------------------------------------|

At the end of Guitar 3
|--11-11-11/13---------|
|----------------------|
|----------------------|
|----------------------|
|----------------------|
|----------------------|

Finger Picking Part (2:03)
|-------------6-------4------3---3-6---3----------------6-----------------------------|
|---------9-----9---------------2----2---2----------6-----6---6---------6-------------|
|--6-6-6-6-6-6---6-6--------3--3--3---3-3------5-5-5-5-5---5-5-5---5-6-5-6-5-6-5-6----|
|--------------------3--6-1----------------5---------------------6--------------------|
|--------------------------------------------3----------------------------------------|
|-------------------------------------------------------------------------------------|

Outro (between the single note picks, he hits unaccented notes, which i didnt put here)
|--11-11-11-9-8-6-4-13-13-13-13-13-11-11-11-11-11-11-11-11-11-11-13-13-13-13-------|
|----------------------------------------------------------------------------8-9---|
|----------------------------------------------------------------------------------|
|----------------------------------------------------------------------------------|
|----------------------------------------------------------------------------------|
|----------------------------------------------------------------------------------|

|--13-13-13-13-----11-11-11-11-----8-8-8-8/11-----------|
|--------------9-8-------------8-6----------------------|
|-------------------------------------------------------|
|-------------------------------------------------------|
|-------------------------------------------------------|
|-------------------------------------------------------|
            
Submit corrections

comments powered by Disqus
↑ Back to top | Kings Of Convenience Tabs for Know How. Lyrics for acoustic guitar and electric guitar. 1 Tablatures and chords are parodies/interpretations of the original songs. You may use it for private study, scholarship, research or language learning purposes only