>
 >
Mrs. Cold

Mrs. Cold Guitar Tabs

Kings Of Convenience - Mrs. Cold chords, tabs, tablatures, lyrics

Guitar lessons | Add/correct | Request | Top 50 tabs Artists:  A B C D E F G H I J K L M N O P Q R S T U V W X Y Z 0-9

Mrs. Cold Guitar Tabs – Kings Of Convenience

CD, Sheet music, Poster

Do you like Mrs. Cold? Share with your friends now
ChordsTabsTabs v2
-------------------------------------------------------------------------------
                             Mrs Cold - Kings of Convenience
-------------------------------------------------------------------------------

Tuning:Standard

Intro 

Guitar 1
                                              Main Riff
e|------------------------------------------|------------------------------|
B|-------x-----------x--------x-----------x-|------6--6------6-----4-4----4|
G|-------x-----------x--------x-----------x-|------7--7------7-----5-5----5|x4
D|-----x---x-------x--------x---x-------x---|------------------------------|x4
A|-----------x-(6)------(6)-------x-(6)-----|-(6)-6------6-6---------------|
E|--(6)-------------------(6)---------------|------------------6-4----4-4--|

Main Riff for the whole song.

Guitar 2; comes in at main riff section

e|------------------------------------------|--------------------------------|
B|-8888-8888-888-8888-9-11-11s13-13-11-9-11-|-----8888-8888-888--------------|
G|------------------------------------------|-x2----------------10101010-10--|
D|------------------------------------------|-x2-----------------------------|
A|------------------------------------------|--------------------------------|
E|------------------------------------------|--------------------------------|

e|---------------------------------------------------------------------------|
B|-----------------------8888-8888-888-8888-9-11-11s13-13-11-9-11-8----------|
G|-10s12-10-------10---------------------------------------------------------|
D|----------13-10------------------------------------------------------------|
A|---------------------------------------------------------------------------|
E|---------------------------------------------------------------------------|

Guitar 2 ; Second Riff

e|---------------------------------------------------------------------------|
B|--P--M---------------------------------------------------------------------|
G|--A--U---------------------------------------------------------------------|
D|--L--T---1212121212-------12-12---------------------------------12h13p12---|
A|--M--E--------------13-13-------13-13--131313--11-1111--13-1313----------13|
E|---------------------------------------------------------------------------|

e|---------------------------------------------------------------------------|
B|---------------------------------------------------------------------------|
G|---------------------------------------------------------------------------|
D|--1212121212-------12-12---------------------------------17p15h17p15-------|
A|-------------13-13-------13-13--131313--11-1111--15-1515--------------17---|
E|---------------------------------------------------------------------------|

e|---------------------------------------------------------------------------|
B|---------------------------------------------------------------------------|
G|---------------------------------------------------------------------------|
D|--1212-------12-12--------------------------------12h13p12-----------------|
A|-------13-13-------13-13--131313--11-1111-13-1313-----------13-------------|
E|---------------------------------------------------------------------------|

e|---------------------------------------------------------------------------|
B|---------------------------------------------------------------------------|
G|---------------------------------------------------------------------------|
D|--1212121212-------12-12---------------------------------17p15h17p15-------|
A|-------------13-13-------13-13--131313--10-1010--15-1515--------------17-13|
E|---------------------------------------------------------------------------|

Guitar 2 ; Little riff towards the end.

e|-------------------------------------------------|-------------------------|
B|-------------------------------------------------|-------------------------|
G|-------------------------------------------------|--x6---------------------|
D|------8-10-8-----8-10-8-----8-10-8-----8-10-8----|--x6---------------------|
A|---10---------10---------11---------11-----------|-------------------------|
E|-------------------------------------------------|-------------------------|

Guitar 1 ; At the end

e|----------------|------------3---------------------------------------------|
B|--3-3-3--4-4-4--|------------3---------------------------------------------|
G|--3-3-3--5-5-5--|--x3--------4---------------------------------------------|
D|----------------|--x3--------5---------------------------------------------|
A|----------------|------------5---------------------------------------------|
E|--3-3-3--4-4-4--|------------3---------------------------------------------|


| /  slide up
| \  slide down
| h  hammer-on
| p  pull-off
| ~  vibrato
| +  harmonic
| x  Mute note
===============================================================================





Comments


Popular Kings Of Convenience tabs & chords
Misread Chords
Toxic Girl 1 Chords
I Dont Know What I Can Save You From (Intro) Tabs
Know How 3 Tabs
Little Kids Tabs
Live Long Tabs
Parallel Lines Tabs
RenegadeIntro Tabs
Toxic Girl 1 Tabs
Love Is No Big Truth Ukulele


Song lyrics



↑ Back to top | Tablatures and chords are parodies/interpretations of the original songs. You may use it for private study, scholarship, research or language learning purposes only
© 2014 AZChords.com Contact us | Privacy policy | DMCA | Add/correct tabs | Request tabs | Top 50 tabs