» » »

Kashmir, Cynic Tabs (ver.2)

Artists:  A B C D E F G H I J K L M N O P Q R S T U V W X Y Z # 

Cynic Tabs (ver.2)

Kashmir Tabs
 Rating:
4/5 (4 votes)
Cynic lessons Tabs too difficult? Try these video lessons and learn fast
                
Intro:

First (1) guitar:
|----------------------------------|
|----------------------------------|
|----------------------------------|
|--10-8-10b-8-10-10----8-8---------| Play it 4 times.
|-------------------10-----8-10-10-|
|----------------------------------|
|----------------------------------|

Second (2) guitar.
|----------------------------------------------|
|----------------------------------------------|
|----------------------------------------------|
|--8-(8)-8-8-8--10-10-10-10--3-3-3-3--6-6-6-6--|  Repeat 3 times including
|--8-(8)-8-8-8--10-10-10-10--3-3-3-3--6-6-6-6--|  this one.
|--6-(6)-6-6-6--8--8--8--8---1-1-1-1--4-4-4-4--|

Vers 1:

|--------------------------------------------------------------------|
|--------------------------------------------------------------------|
|--------------------------------------------------------------------|
|--10-10-10-10-10-10-10-10--8-8-8-8-8-8-8-8--10-10-10-10-10-10-10-10-|
|--7--7--7--7--7--7--7--7---5-5-5-5-5-5-5-5--7--7--7--7--7--7--7--7--|
|--8--8--8--8--8--8--8--8---6-6-6-6-6-6-6-6--8--8--8--8--8--8--8--8--|
   So pull me out of this dream...

---------------------------------------------------------------------|
---------------------------------------------------------------------|
---------------------------------------------------------------------|
--8-8-8-8-8-8-8-8--6-6-6-6-6-6-6-6--8-8-8-8-8-8-8-8--6-6-6-6-6-6-6-6-|
--5-5-5-5-5-5-5-5--3-3-3-3-3-3-3-3--5-5-5-5-5-5-5-5--3-3-3-3-3-3-3-3-|
--6-6-6-6-6-6-6-6--4-4-4-4-4-4-4-4--6-6-6-6-6-6-6-6--4-4-4-4-4-4-4-4-|..Television       
on a romantic vionol, and come to bed again...

------------------|
------------------|
------------------|
--3-3-3-3-3-3-3-3-| Repeat once, but last time it goes like this in
--3-3-3-3-3-3-3-3-| the end. (Below)
--1-1-1-1-1-1-1-1-|

|-------------------|
|-------------------|
|-------------------|
|--3-3-3-3--6-6-6-6-|
|--3-3-3-3--6-6-6-6-|
|--1-1-1-1--4-4-4-4-|

Refrain:

|---------------------------------------------------------------------------|
|---------------------------------------------------------------------------|
|------------------------------------------------------9-9-9-9--------------|
|--5-5-5-5--6-6-6-6--10-10-10-10-10-10-10-10--9-9-9-9--9-9-9-9--6-6-6-6-6-6-|
|--5-5-5-5--6-6-6-6--10-10-10-10-10-10-10-10--9-9-9-9--6-6-6-6--6-6-6-6-6-6-|
|--3-3-3-3--4-4-4-4--8--8--8--8--8--8--8--8---6-6-6-6-----------4-4-4-4-4-4-|

-----|
-----|
-----|
--6-6| Repeat once.
--6-6|
--4-4|

The rest of the song are the same, both in vers and refrain.

Enjoy
            
Submit corrections

comments powered by Disqus
↑ Back to top | Kashmir Tabs for Cynic. Lyrics for acoustic guitar and electric guitar. Tablatures and chords are parodies/interpretations of the original songs. You may use it for private study, scholarship, research or language learning purposes only