» » »

Cynic Tabs (ver.1)

Artists:  A B C D E F G H I J K L M N O P Q R S T U V W X Y Z # 

Cynic Tabs (ver.1)

Kashmir
Rating:
4/5 (6 votes)

Hard to play? Try these video lessons and learn fast.
                    ______________________________
   / Kashmir (feat. David Bowie) /
  / The Cynic                   /
 / No Balance Palace           /
/_____________________________/

***************************************************************
  also, check out me guitar pro tab of this:
***************************************************************

Intro/Interludes:
 Q=82 bpm
 4/4

 Lead Guitar:
                                                       3x
:----||---------------------------|--------------------||
:----||o--------------------------|-------------------o||
:-10-||--(10)-8-10/12-8-10--------|---8------------10--||
:----||----------------------10---|-------8---10-------||
:----||o--------------------------|-------------------o||
:----||---------------------------|--------------------||

|--------------------------|------------------|
|--------------------------|------------------|
|-(10)-8-10/12-8-10--------|------------------|
|---------------------10---|-(10)-------------|
|--------------------------|------------------|
|--------------------------|------------------|


 Rhythm Guitar:
  Bb5                C5               F5            Ab5
:----|------------------------------|---------------------------|
:----|------------------------------|---------------------------|
:----|------------------------------|---------------------------|
:-8--|----8--8--8--8/10-10--10--10\-|-3--3--3--3--3/6-6--6--6/8-|
:-8--|----8--8--8--8/10-10--10--10\-|-3--3--3--3--3/6-6--6--6/8-|
:-6--|----6--6--6--6/-8--8---8---8\-|-1--1--1--1--1/4-4--4--4/6-|

    Bb5           C5               F5            Ab5          3x
||-------------------------------|----------------------------||
||o------------------------------|---------------------------o||
||-------------------------------|----------------------------||
||--8--8--8--8--8/10-10--10--10\-|-3--3--3--3--3/6-6--6--6/8--||
||o-8--8--8--8--8/10-10--10--10\-|-3--3--3--3--3/6-6--6--6/8-o||
||--6--6--6--6--6/-8--8---8---8\-|-1--1--1--1--1/4-4--4--4/6--||




 Verse:
Played by an acoustic steel-stringed guitar. Strum all the chords in 16ths.
An electric guitar makes a lot of noisy chords as well.

                                                           1.          2.
      C6     Bb6      C6     Bb6     Ab6     Bb6     Ab6  F-5(add9) G6 F-5(add9)
||--------|-------|-------|-------|-------|-------|-------|----------||-------|
||o---8---|---6---|---8---|---6---|---4---|---6---|---4---|-0-----3-o||---0---|
||----9---|---7---|---9---|---7---|---5---|---7---|---5---|-0-----4--||---0---|
||----7---|---5---|---7---|---5---|---3---|---5---|---3---|-3-----2--||---3---|
||o---7---|---5---|---7---|---5---|---3---|---5---|---3---|-0-----2-o||---0---|
||----8---|---6---|---8---|---6---|---4---|---6---|---4---|-1-----3--||---1---|




 Chorus:

Rhythm Guitar:

  G5           Ab5             C5
|----------------------------|----------------------------------|
|----------------------------|----------------------------------|
|----------------------------|----------------------------------|
|-5--5--5--5/6-6--6--6--6/10-|-10--10--10--10--10--10--10--10\8-|
|-5--5--5--5/6-6--6--6--6/10-|-10--10--10--10--10--10--10--10\8-|
|-3--3--3--3/4-4--4--4--4/-8-|--8---8---8---8---8---8---8---8\6-|


  Bb5         Eb5           Ab5
|-------------------------|-------------------------|
|-------------------------|-------------------------|
|-------------8--8--8--8--|-------------------------|
|-8--8--8--8--8--8--8--8--|-6--6--6--6--6--6--6--6--|
|-8--8--8--8--6--6--6--6--|-6--6--6--6--6--6--6--6--|
|-6--6--6--6--6--6--6--6--|-4--4--4--4--4--4--4--4--|


  G5           Ab5           Eb5
|--------------------------|-------------------------|
|--------------------------|-------------------------|
|--------------------------|-8--8--8--8--8--8--8--8--|
|-5--5--5--5/6-6--6--6--6/-|-8--8--8--8--8--8--8--8--|
|-5--5--5--5/6-6--6--6--6/-|-6--6--6--6--6--6--6--6--|
|-3--3--3--3/4-4--4--4--4/-|-6--6--6--6--6--6--6--6--|


  F5              C5                Bb5
|---------------------------------|-------------------------|
|---------------------------------|-------------------------|
|-10--10--10--10------------------|-------------------------|
|-10--10--10--10--10--10--10--10--|-8--8--8--8--8--8--8--8--|
|--8---8---8---8--10--10--10--10--|-8--8--8--8--8--8--8--8--|
|--8---8---8---8---8---8---8---8--|-6--6--6--6--6--6--6--6--|




 Verse


 2x Chorus



 Final Interlude:

Lead Guitar: (rhythm guitar plays the same as previous)

:----||---------------------------|--------------------||
:----||o--------------------------|-------------------o||
:-10-||--(10)-8-10/12-8-10--------|---8------------10--||
:----||----------------------10---|-------8---10-------||
:----||o--------------------------|-------------------o||
:----||---------------------------|--------------------||


|---------------------------|----------------------|
|----------------------13---|----------------------|
|-(10)-8-10/12/15-12--------|----\10---8---12---10-|
|---------------------------|----------------------|
|---------------------------|----------------------|
|---------------------------|----------------------|


|--------------------------|------------------|
|--------------------------|------------------|
|-(10)-8-10/12-8-10--------|------------------|
|---------------------10---|-(10)-------------|
|--------------------------|------------------|
|--------------------------|------------------|




 Noisy-Outro:

  G5
|-----------------|-----------------|-----------------|-----------------|
|-----------------|-----------------|-----------------|-----------------|
|-----------------|-----------------|-----------------|-----------------|
|-5---------------|-5---------------|-5---------------|-5---------------|
|-5---------------|-5---------------|-5---------------|-5---------------|
|-3---------------|-3---------------|-3---------------|-3---------------|



 LYRICS
**********
a.  so pull me out of this dream
    turn off the television
    put on a romantic vinyl
    and come to bed again
    please be my next morning flower
    but don't be here all the time
    leave me a couple of hours
    then bring me food and wine.
       b.  play with me, play with me
           don't tell me how it feels
           don't let it be for real
           don't tell me how you feel.
a.  i'll make this week disappear
    like i've erased seceral months
    it's turning into a year now
    and i'm still a manikin
    you're so poetic when you're sad
    so tiring when you cry
    we could fly out and get married
    i think i love you now.
       b.  play with me, play with me
           don't tell me how it feels
           don't let it be for real
           don't tell me how you feel.


+------------------------------------------------------------------------+
Jon Sebastian Frederiksen - 30th /March /10
            
Hard to play? Try these video lessons and learn fast. | Correct




comments powered by Disqus
↑ Back to top | Tablatures and chords are parodies/interpretations of the original songs. You may use it for private study, scholarship, research or language learning purposes only