» » »

Kashmir, Cynic Tabs (ver.3)

Artists:  A B C D E F G H I J K L M N O P Q R S T U V W X Y Z # 

Cynic Tabs (ver.3)

Kashmir Tabs
 Rating:
4/5 (4 votes)
Cynic lessons Tabs too difficult? Try these video lessons and learn fast
1
                Intro

E|--------------------------------------------|
H|----------------8---------------------------|
G|----10--8--10------8--10--------8-----------| 2x
D|----------------------------10-----8--10----|
A|--------------------------------------------|
E|--------------------------------------------|

E|--------------------------------------------|
H|----------------8--11--8--13--8-------------|
G|----10--8--10--------------------10--8------| 
D|--------------------------------------------|
A|--------------------------------------------|
E|--------------------------------------------|

E|--------------------------------------------|
H|---------------8----------------------------|
G|----10--8--10-----8--10---------------------|
D|-------------------------10~~~~-------------|
A|--------------------------------------------|
E|--------------------------------------------|


Vers

C                       Bb
So pull my out of this dream
C                 Bb
turn off the television
Ab                   Bb
put on a romantic vinyl
Ab                Bb
and come to bed again.
C                         Bb
Please be my next morning flower
C                        Bb
but don't be here all the time
Ab                       Bb
leave me a couple of hours
Ab                       Bb
then bring me food and wine.

Omkvædet

G5        Ab5                  C5
Play with me, play with me
Bb5               Eb5    Ab5
don't tell me how it feels
G5                Ab5    Eb5
don't let it be for real
F5               C5     Bb5
don't tell me how you feel


I’ll make this week disappear 
like I’ve erased several month 
it’s turning into a year now 
and I’m still a manikin 
you’re so poetic when you’re sad 
so tiring when you cry 
we could fly out and get married 
I think I love you now. 

play with me, play with me 
don’t tell me how it feels 
don’t let it be for real 
don’t tell me how you feel 
            
Submit corrections

comments powered by Disqus
↑ Back to top | Kashmir Tabs for Cynic. Lyrics for acoustic guitar and electric guitar. 1 Tablatures and chords are parodies/interpretations of the original songs. You may use it for private study, scholarship, research or language learning purposes only