» » »

Kasabian, Doberman Bass tabs (ver.2)

Artists:  A B C D E F G H I J K L M N O P Q R S T U V W X Y Z # 

Doberman Bass tabs (ver.2)

Kasabian Tabs
 Rating:
4/5 (4 votes)
Doberman lessons Tabs too difficult? Try these video lessons and learn fast
                G|------------------------------------------------------|
D|------------------------2--3-3---3-3---3-3---3-3-5-6--|
A|3-3---3-3---3-3---3-3-5-------------------------------|
E|------------------------------------------------------|

G|------------------------------------------------|
D|7-7---7-7---7-7---7-7\--------------------------|
A|------------------------3-3---3-3---3-3---3-3---|
E|------------------------------------------------|

================

G|------------------------------------2-2---2-2---|
D|------------------------3-3---3-3---------------|
A|3-3---3-3---3-3---3-3---------------------------|x2
E|------------------------------------------------|

================

G|------------------------------------------------------|
D|------------------------2--3-3---3-3---3-3---3-3-6-6--|
A|3-3---3-3---3-3---3-3-5-------------------------------|
E|------------------------------------------------------|

G|------------------------------------------------|
D|7-7---7-7---7-7---7-7---------------------------|
A|------------------------3-3---3-3---3-3---3-3---|
E|------------------------------------------------|

G|------------------------------------------------------|
D|------------------------2--3-3---3-3---3-3---3-3-5-6--|
A|3-3---3-3---3-3---3-3-5-------------------------------|
E|------------------------------------------------------|

G|---------------------------------------------------|
D|7-7---7-7---7-7---7-7\-----------------------------|
A|------------------------3-3---3-3---3-3---3-3-2-0--|
E|---------------------------------------------------|

================

G|------------------------------------------------------------------------|
D|------------------------3-3---3-3---3-3---3-3---7-7---7-7---7-7---7-7---|
A|3-3---3-3---3-3---3-3---------------------------------------------------|
E|------------------------------------------------------------------------|

G|------------------------|
D|------------------------|
A|3-3---3-3---3-3---3-3---|
E|------------------------|

G|------------------------------------------------------------------------|
D|------------------------3-3---3-3---3-3---3-3---7-7---7-7---7-7---7-7---|
A|3-3---3-3---3-3---3-3---------------------------------------------------|
E|------------------------------------------------------------------------|

G|----------------|
D|----------------|
A|3~~~------------|
E|----------------|

================

play a A-3 at the following times;
02:56, 03:00, 03:05

================
G|---3-2----------|
D|0------3-2------|
A|-----------3~~--|x14
E|----------------|

G|-------|
D|-------|
A|5~~----|
E|-------|

Rest for the remainder of the song
Please rate :)
            
Submit corrections

comments powered by Disqus
↑ Back to top | Kasabian Bass for Doberman. Lyrics for acoustic guitar and electric guitar. Tablatures and chords are parodies/interpretations of the original songs. You may use it for private study, scholarship, research or language learning purposes only