» » »

Kasabian, Doberman Bass tabs (ver.1)

Artists:  A B C D E F G H I J K L M N O P Q R S T U V W X Y Z # 

Doberman Bass tabs (ver.1)

Kasabian Tabs
 Rating:
4.4/5 (7 votes)
Doberman lessons Tabs too difficult? Try these video lessons and learn fast
1
                G|-------------------------------------------------|
D|-------------------------------------------------|
A|-5-5--5-5--5-5--5-5-57--8-8--8-8--8-8--8-8-8(10)-|  (x1)
E|-------------------------------------------------|

G|-------------------------------------------------|
D|-------------------------------------------------|  
A|-12-12--12-12--12-12--12--12--5-5--5-5--5-5--5-5-|  (x1)   
E|-------------------------------------------------|

G|--------------------------------------------|
D|--------------------------------------------|
A|-5-5--5-5--5-5--5-5--7-7--7-7--12-12--12-12-|  (x2)
E|--------------------------------------------|

G|-----------------------------------------------| 
D|-----------------------------------------------|  
A|-5-5--5-5--5-5--5-5-57--8-8--8-8--8-8--8-8(10)-|  
E|-----------------------------------------------|  
                                                     
G|-----------------------------------------------|  
D|-----------------------------------------------|  
A|-12-12--12-12--12-12--12-12--5-5--5-5--5-5--5-5|  
E|-----------------------------------------------| 

G|-----------------------------------------------| 
D|-----------------------------------------------|  
A|-5-5--5-5--5-5--5-5-57--8-8--8-8--8-8--8-8(10)-|  
E|-----------------------------------------------|  
                                                     
G|------------------------------------------------|  
D|------------------------------------------------|  
A|-12-12--12-12--12-12--12-12--5-5--5-5--5-5--5-53|  
E|------------------------------------------------| 

G|----------------------------------------|
D|----------------------------------------|
A|-5-5--5-5--5-5--5-5--7-7--7-7--7-7--7-7-|
E|----------------------------------------|

G|------------------------------------------------|
D|------------------------------------------------|
A|-12-12--12-12--12-12--12-12--5-5--5-5--5-5--5-5-|
E|------------------------------------------------|

G|----------------------------------------|
D|----------------------------------------|
A|-5-5--5-5--5-5--5-5--7-7--7-7--7-7--7-7-|
E|----------------------------------------|

G|-------------------------------|
D|-------------------------------|
A|-12-12--12-12--12-12--12-12--5-|
E|-------------------------------|

G|------------------------------------------------------------|
D|------------------------------------------------------------|
A|-5-----5-----5-----5-----5-----5-5-5-5-5-5-5-5-5-5-5-5-5....|
E|------------------------------------------------------------|

carries on until trumpet solo

G|-----------|
D|----87-----|
A|-5-5--87---|
E|---------8-| (x16)

G|-----|
D|-----|
A|-5---|
E|-----|

Comments appreciated
Hocus Pocus
            
Submit corrections

comments powered by Disqus
↑ Back to top | Kasabian Bass for Doberman. Lyrics for acoustic guitar and electric guitar. 1 Tablatures and chords are parodies/interpretations of the original songs. You may use it for private study, scholarship, research or language learning purposes only