» » »

Kasabian, Doberman Tabs (ver.2)

Artists:  A B C D E F G H I J K L M N O P Q R S T U V W X Y Z # 

Doberman Tabs (ver.2)

Kasabian Tabs
 Rating:
4/5 (4 votes)
Doberman lessons Tabs too difficult? Try these video lessons and learn fast
                Verse 1
  D
                                   Silence in the yard
E|---------------------------------------------------------------------|
B|---------------------------------------------------------------------|
G|-----2-------2-------2-------2-------2-------2-------2-------2-------|
D|-0-------0-------0-------0-------0-------0-------0-------0-----------|
A|---------------------------------------------------------------------|
E|---------------------------------------------------------------------|

  F               Am                      D
Dobermans  as...leep You never  have to Layyourhead down here
E|---------------------------------------------------------------------|
B|---------------------------------------------------------------------|
G|----2-------2-------0-----------------------2-------2-------2-------2|
D|3-------3-------2-------2---3---2-------0-------0-------0-------0----|
A|-------------------------------------3-------------------------------|
E|---------------------------------------------------------------------|

                                          Chorus
  F               Am                       D
  Watch them disappear    Thetruthis      Theynever had no future
E|---------------------------------------------------------------------|
B|-----------------------------------------3-3------3-3------3-3----3-3|
G|----2-------2-------0--------------------2-2------2-2------2-2----2-2|
D|3-------3-------2-------2---3---2--------0-0------0-0------0-0----0-0|
A|------------------------------------3--------------------------------|
E|---------------------------------------------------------------------|

  F                                   Am
They never had no past                I was alone       I was alone
E|1-1------1-1------1-1------1-1------0-0------0-0------0-0------0-0---|
B|1-1------1-1------1-1------1-1------1-1------1-1------1-1------1-1---|
G|2-2------2-2------2-2------2-2------2-2------2-2------2-2------1-1---|
D|3-3------3-3------3-3------3-3------2-2------2-2------2-2------2-2---|
A|3-3------3-3------3-3------3-3------0-0------0-0------0-0------0-0---|
E|---------------------------------------------------------------------|


************************************************************************
At this point you can either pick the notes like Verse 1 or strike the chords like the 
The actual recording uses both. I find that striking the strings with fingers in the 
used for picking notes sounds best when playing an acoustic guitar alone.
************************************************************************

                                   Verse 2
  D
  Again                            The speed of London sky
E|---------------------------------------------------------------------|
B|---------------------------------------------------------------------|
G|-----2-------2-------2-------2-------2-------2-------2-------2-------|
D|-0-------0-------0-------0-------0-------0-------0-------0-----------|
A|---------------------------------------------------------------------|
E|---------------------------------------------------------------------|

  F               Am                      D
Whiskies almost dry,I smile cause  i’ve Alread-y  escaped
E|---------------------------------------------------------------------|
B|---------------------------------------------------------------------|
G|----2-------2-------0-----------------------2-------2-------2-------2|
D|3-------3-------2-------2---3---2-------0-------0-------0-------0----|
A|-------------------------------------3-------------------------------|
E|---------------------------------------------------------------------|

                                          Chorus
  F               Am                       D
 Ijustliketoseehowfar I can take it       Theynever had no future
E|---------------------------------------------------------------------|
B|-----------------------------------------3-3------3-3------3-3----3-3|
G|----2-------2-------0--------------------2-2------2-2------2-2----2-2|
D|3-------3-------2-------2---3---2--------0-0------0-0------0-0----0-0|
A|------------------------------------3--------------------------------|
E|---------------------------------------------------------------------|

  F                                   Am
They never had no past                I was alone       I was alone
E|1-1------1-1------1-1------1-1------0-0------0-0------0-0------0-0---|
B|1-1------1-1------1-1------1-1------1-1------1-1------1-1------1-1---|
G|2-2------2-2------2-2------2-2------2-2------2-2------2-2------1-1---|
D|3-3------3-3------3-3------3-3------2-2------2-2------2-2------2-2---|
A|3-3------3-3------3-3------3-3------0-0------0-0------0-0------0-0---|
E|---------------------------------------------------------------------|

  D
  Again
E|---------------------------------------------------------------------|
B|3-3------3-3------3-3----3-3-----------------------------------------|
G|2-2------2-2------2-2----2-2-----------------------------------------|
D|0-0------0-0------0-0----0-0-----------------------------------------|
A|---------------------------------------------------------------------|
E|---------------------------------------------------------------------|
            
Submit corrections

comments powered by Disqus
↑ Back to top | Kasabian Tabs for Doberman. Lyrics for acoustic guitar and electric guitar. Tablatures and chords are parodies/interpretations of the original songs. You may use it for private study, scholarship, research or language learning purposes only