>
 >
Vlad The Impaler

Vlad The Impaler Guitar Tabs

Kasabian - Vlad The Impaler chords, tabs, tablatures, lyrics

Guitar lessons | Add/correct | Request | Top 50 tabs Artists:  A B C D E F G H I J K L M N O P Q R S T U V W X Y Z 0-9

Vlad The Impaler Guitar Tabs – Kasabian

CD, Sheet music, Poster

Do you like Vlad The Impaler? Share with your friends now
Bass TabsBass Tabs v2Bass Tabs v3Bass Tabs v4TabsTabs v2
This is a bit tricky.  There isn't really a good way to organize
all of the riffs so I grouped them together based on what instrument
they are played on.  I've loosely labelled when each part is played, but 
I hope it's not too confusing.  Every part is tabbed out for guitar and 
the entire song is Bbm.

VLAD THE IMPALER

Bass:

Riff 1
e-------------------------------------------|
B-------------------------------------------|
G-------------------------------------------|
D-------------------------------------------|
A------4----------4---------4---------------|
E-/6-6---6\-/6-6----6\-/6-6---6-5-5-4-4-1-1-|



Guitar:

Intro/Break 2:
e------------------|
B------------------|
G------------------|
D------------------|
A------8-----------|
E-/6-6---6-6-4-4-4-|

Break 1/Rhythm Guitar:
Bbm
e---------|
B---------|
G---------|
D-8-8-8-8-|
A-8-8-8-8-|
E-6-6-6-6-| etc.

Chorus:
Lead Guitar
e--------|
B--------|
G--------|
D-/15-15-|
A-/15-15-|
E-/13-13-|

Solo:
Guitar Solo:
e------------------------------------------------------------------|
B------------------------------------------------------------9-11~-|
G-----5-6-8-6-5-6p5--------5-6-8----5-6-8-6-5-10-8-6---10-8--------|
D---8~--------------8~---8~-------8~-----------------8-------------|
A-8--------------------8-------------------------------------------|
E------------------------------------------------------------------|x2



Synth:

Verse:
Riff 1
e-----------------------------------------------------|
B-------6--9--------6--9---------6--------------6-----|
G----------------------------------6---------8--------|
D-8~--8~-----8~--8~-------8~--8~------8~--8~-------8~-|
A-----------------------------------------------------|
E-----------------------------------------------------|

Riff 2
e-------------------------|
B-------------------------|
G-------------------------|
D-8-8---8-8---8-8---8-8---|
A-----8-----8-----8-----8-|
E-------------------------| etc.


Chorus:
Riff 3
e--------------|
B--------------|
G----------6---|
D-8-8--8-8---8-|
A--------------|
E--------------|

Riff 4
e-------------------------------|
B-------------------------------|
G---------6-----------------6---|
D-8-8-8-8---8--------8--8-8---8-|
A-------------8-8-8-------------|
E-------------------------------|


Outro:
Riff 5
e----------------|
B-6-6-6-6---6--9-|
G---------8------|
D----------------|
A----------------|
E----------------|

Riff 6
e---------|
B-9~--13~-|
G---------|
D---------|
A---------|
E---------|





Comments


Popular Kasabian tabs & chords
Club Foot 1 Bass Tabs
Ladies And Gentlemen 2 Bass Tabs
Stuntman Bass Tabs
Running Battle Chords
Fire 2 Tabs
Last Trip (In Flight) Tabs
Underdog 1 Tabs
Underdog Intro Tabs
West Ryder Silver Bullet Tabs
I Hear Voices Ukulele


Song lyrics



↑ Back to top | Tablatures and chords are parodies/interpretations of the original songs. You may use it for private study, scholarship, research or language learning purposes only
© 2014 AZChords.com Contact us | Privacy policy | DMCA | Add/correct tabs | Request tabs | Top 50 tabs