» » »

Kasabian, Club Foot Tabs (ver.6)

Artists:  A B C D E F G H I J K L M N O P Q R S T U V W X Y Z # 

Club Foot Tabs (ver.6)

Kasabian Tabs
Rating:
5/5 (7 votes)
Club Foot lessons Tabs too difficult? Try these video lessons and learn fast
                -------------------------------------------------------------------------------
-------------------------------------------------------------------------------

Tuning: Standard

I’ve noticed that the tabs on this site seemed to have jumped to the 
Conclusion that this song is in a dropped tuning.

Well, it’s not. The song is in standard and that really deep note you hear 
in the main riff is the bass line, not a dropped E string.

Intro/chorus riff

e|-----------------------------------------------------------------|
B|-----------------------------------------------------------------|
G|-----------------------------------------------------------------|
D|-----------------------------------------------------------------|
A|----------------------6---6-------------------/10-8-6-8-6--------|
E|--8--8-8-8--8--8-8-8----8-----8--8-8-8--8-8-8--------------8-----|

Verse (Listen to song for timing)

Note: This is also what the rhythm guitar plays all the way through the song

e|-----------------------------------------------------------------|
B|-----------------------------------------------------------------|
G|-----------------------------------------------------------------|
D|--------------------------------------------10-10-10-10-10-------|
A|--------------------------------------------8--8--8--8--8--------|
E|--8-8-8-8-8-8-8-8-8-8-8-8-8-8-8-8-8-8-8-8-8----------------------|

Chorus

e|-----------------------------------------------------------------|
B|-----------------------------------------------------------------|
G|-----------------------------------------------------------------|
D|-----------------------------------------------------------------|
A|----------------------6---6-------------------/10-8-6-8-6--------|
E|--8--8-8-8--8--8-8-8----8-----8--8-8-8--8-8-8--------------8-----|
 |								      |
e|-----------------------------------------------------------------|
B|-----------------------------------------------------------------|
G|-----------------------------------------------------------------|
D|--------------------------------------------10-10-10-10-10-------|
A|--------------------------------------------8--8--8--8--8--------|
E|--8-8-8-8-8-8-8-8-8-8-8-8-8-8-8-8-8-8-8-8-8----------------------|

Repeat the verses and chorus one more time. 

Solo

e|--------------------------------------------------------------------|
B|--------------------------------------------------------------------|
G|--------------------------------------------------------------------|
D|--------------------------------------------------------------------|
A|----3--6~~---10-8--6-8--6-----8-6---------0-3-----------8-6-10------|
E|-3------------------------8-------8---0-3------3s11-10--------------|

Tremelo picking bit (Trem pick these notes)

Listen to song for when to change notes and just slide between them

e|-----------------------------------------------------------|
B|-----------------------------------------------------------|
G|-----------------------------------------------------------|
D|-----------------------------------------------------------|
A|--10--8--10---7--8--10--13-15-17-15-13-10--8--10--8--6-----|
E|-----------------------------------------------------------|

At the bridge bit, a keyboard plays this twice

e|--12------------10---12-------|
B|------------------------------|
G|-------13/--8-----------------|
D|------------------------------|
A|------------------------------|
E|------------------------------|


Awesome song . Any comments stick them in the comments section
            

comments powered by Disqus
↑ Back to top | Kasabian Tabs for Club Foot. Lyrics for acoustic guitar and electric guitar. Tablatures and chords are parodies/interpretations of the original songs. You may use it for private study, scholarship, research or language learning purposes only