» » »

Kasabian, Club Foot Tabs (ver.3)

Artists:  A B C D E F G H I J K L M N O P Q R S T U V W X Y Z # 

Club Foot Tabs (ver.3)

Kasabian Tabs
 Rating:
4.8/5 (21 vote)
Club Foot lessons Tabs too difficult? Try these video lessons and learn fast
                Kasabian
Club Foot
Standard tuning

i dont know where the people who post the club foot tab get the feeling its in drop d
also for the other versions of this, the same notes are played at the higher end of the a
but can be played on the d string but lower down the fretboard, i guess the other people 
know what the actual tab goes like so here it is, This is 100 % correct

Intro
e-----------------------------------------------------------|
B-----------------------------------------------------------|
G-----------------------------------------------------------|  X4
D----------------------------------------5--3-3-------------|
A-3-3-3-3-3--3-3--6-3-6--3-6--3-3-3-3-3-3----6--6-3---------|
E-----------------------------------------------------------|

Verse
One take control of me....                      ....said it's
e-----------------------------------------------------------|
B-----------------------------------------------------------|
G-----------------------------------------------------------|
D-----------------------------------------------------3-3-3-|
A-3-3-3-3-3-3-3-3-3-3-3-3-3-3-3-3-3-3-3-3-3-3-3-3-3-3-------|
E-----------------------------------------------------------|

One take control of me, you're messin' with the enemy
Said it's two, it's another trick, messin with my mind i wake up
chased down an empty street, blindly smacked the broken beat
said it's gone with the dirty trick,
it's taken all these days just to find ya

Chorus (the same riff as used in the intro)

[ooh] i........ tell you i want you,
[ooh] i........ tell you i need you,

Verse

Thrills take control of me, stalkin cross the gallery
all these pills, got to operate, the colour quits and all invaders
There it goes again, take me to the edge again,
all i got is a dirty trick,
i'm chasin down the wolves to save ya

Chorus

[ooh] i........ tell you i want you,
[ooh] i........ tell you i need you,
[ooh] i........ the blood on my face,
[ooh] i........ just wanted you near me,

Solo

[brackets () round a number means the not is picked very fast, but lsten to track for
speed]
e-----------------------------------------------------------|
B-----------------------------------------------------------|
G-----------------------------------------------------------|
D-------5-3--3--------3---------------0-3-0--5~-5555555-----|
A--3-6------6--6-3--6---6-3----0-3-0-6----------------------|
E-3-------------------------0-3-----------------------------|

e-----------------------------------------------------------|
B---------------------------(3)-----------------------------|
G---------------------(3)(5)---(5)(3)-----------------------|
D-(5)-33(5)-223333(5)----------------(5)(3)(5)(3)-----------|
A------------------------------------------------(6)--------|
E-----------------------------------------------------------|

Chorus

[ooh] i....... i tell you i want you,
[ooh] i....... i tell you i need you,
[ooh] i....... the blood on my face,
[ooh] i....... just wanted you near me,


At the very end there is an outro that goes like
e---------------15------------------------------------------|
B---13-15-16-13----16-15-13---------------------------------|
G-----------------------------------------------------------| X5
D-----------------------------------------------------------|
A-----------------------------------------------------------|
E-----------------------------------------------------------|
            
Submit corrections

comments powered by Disqus
↑ Back to top | Kasabian Tabs for Club Foot. Lyrics for acoustic guitar and electric guitar. Tablatures and chords are parodies/interpretations of the original songs. You may use it for private study, scholarship, research or language learning purposes only