» » »

Club Foot Bass tabs (ver.1)

Artists:  A B C D E F G H I J K L M N O P Q R S T U V W X Y Z # 

Club Foot Bass tabs (ver.1)

Kasabian
Rating:
3/5 (4 votes)

Hard to play? Try these video lessons and learn fast.
                Kasabian
Kasabian

After having continuous arguments with my friends over wheter this song is played on 
or bass, i decided to try and tab it for the bass guitar. Lo and behold, it seems that this 
is played on the bass. Hope this is accurate enough. Positive + Negative feedback is welcome. Enjoy =D

Intro/Chorus
G------------8----8----8---------12-10-8-10-8----|
D---------10---10---10------------------------10-|
A------------------------------------------------|
E-8-888-8----------------8-888-8-----------------|

Verse
G------------------------------------------|
D------------------------------------------|
A-3-3-3-3-3-3-3-3-3-3-3-3-3-3-3-3/8-8-8-8\-|
E------------------------------------------|

Bridge
G----8-----12-10-8-10-8----8-10-8----0-3-0-5-0-8-0-10-0-|
D-10--------------------10--------10--------------------|
A-------------------------------------------------------|
E-------------------------------------------------------|

Not sure if the number of notes is correct on this part, but you just Tremolo pick. you 
get the timing + rythm right by listening to the song.

G-12-12-12-12-12-12-12-12-10-10-10-10-10-10-10-10-|
D-------------------------------------------------|
A-------------------------------------------------|
E-------------------------------------------------|

G-12-12-12-12-12-12-12-12-10-10-10-10-10-10-10-10-|
D-------------------------------------------------|
A-------------------------------------------------|
E-------------------------------------------------|

G-15-15-15-15-17-17-17-17-19-19-19-19-17-17-17-17-|
D-------------------------------------------------|
A-------------------------------------------------|
E-------------------------------------------------|

G-15-15-15-15-12-12-12-12-10-10-10-10-12-12-12-12-|
D-------------------------------------------------|
A-------------------------------------------------|
E-------------------------------------------------|

G-10-10-10-10-10-10-8-8-8-8-----------------------|
D-------------------------------------------------|
A-------------------------------------------------|
E-------------------------------------------------|

Then play

Chorus

Verse

Again, get the number of times these need to be played by listening to the song.
            
Hard to play? Try these video lessons and learn fast. | Correct




comments powered by Disqus
↑ Back to top | Tablatures and chords are parodies/interpretations of the original songs. You may use it for private study, scholarship, research or language learning purposes only