» » »

Club Foot Bass tabs (ver.3)

Artists:  A B C D E F G H I J K L M N O P Q R S T U V W X Y Z # 

Club Foot Bass tabs (ver.3)

Kasabian
Rating:
3/5 (2 votes)

Tabs too difficult? Try these video lessons and learn fast.
                KASABIAN - CLUB FOOT
bassist: Christopher Edwards 


Intro/Chorus  (0:26) (x4)
G------------8----8----8---------12-10-8-10-8----|
D---------10---10---10------------------------10-|
A------------------------------------------------|
E-8-888-8----------------8-888-8-----------------|



Verse (0:45) (x4)
G------------------------------------------|
D------------------------------------------|       
A-3-3-3-3-3-3-3-3-3-3-3-3-3-3-3-3/8-8-8-8\-|
E------------------------------------------|



Intro/Chorus (1:04) (x2)
G------------8----8----8---------12-10-8-10-8----|
D---------10---10---10------------------------10-|      
A------------------------------------------------|
E-8-888-8----------------8-888-8-----------------|



Verse (1:13) (x4)
G------------------------------------------|
D------------------------------------------|        
A-3-3-3-3-3-3-3-3-3-3-3-3-3-3-3-3/8-8-8-8\-|
E------------------------------------------|



Intro/Chorus (1:32) (x4)
G------------8----8----8---------12-10-8-10-8----|
D---------10---10---10------------------------10-|      
A------------------------------------------------|
E-8-888-8----------------8-888-8-----------------|



Solo (1:51) (x1)
G:---10---10h12-10-8-10-8-------8-10-8------------------|
D:--8---------------------10------------10------8-10-10-|
A:-----------------------------------------8--10--------|
E:------------------------------------------------------|



G:----8-10-8-------------------8----10----12--|
D:-----------10------8-10---10---10----10-----|
A:--------------8--10-------------------------|
E:--------------------------------------------|



G:--12-12-12-12-12-12-12-12--10--12-12-12-12-12-12-12--|   <------Four beats per bar
D:-----------------------------------------------------|
A:-----------------------------------------------------|
E:-----------------------------------------------------|



G:--8-8--10-10-10-10-10-10-10-10-10-10-10-10--15-15-15-15--17-17-17-17--|  <------Eight beats per bar
D:----------------------------------------------------------------------|
A:----------------------------------------------------------------------|
E:----------------------------------------------------------------------|



G:--19-19-19-19-19-19-19-19--17-17-17-17-17-17-17-17--|  <-----Sixteen beats per bar
D:----------------------------------------------------|
A:----------------------------------------------------|
E:----------------------------------------------------|



G:--15-15-15-15-15-15-15--12-12-12-12-12-12-12-12--|
D:-------------------------------------------------|
A:-------------------------------------------------|
E:-------------------------------------------------|



G:--10-10-10-10-10-10-10-10--8-8-8-8-8-8-8-8-------|
D:-------------------------------------------------|
A:-------------------------------------------------|
E:-------------------------------------------------|



Intro/Chorus (2:10) (x4)
G------------8----8----8---------12-10-8-10-8----|
D---------10---10---10------------------------10-|
A------------------------------------------------|
E-8-888-8----------------8-888-8-----------------|



Verse  (2:28) (x8)
G------------------------------------------|
D------------------------------------------|
A-3-3-3-3-3-3-3-3-3-3-3-3-3-3-3-3/8-8-8-8\-|
E------------------------------------------|


END
            
Tabs too difficult? Try these video lessons and learn fast.




comments powered by Disqus
↑ Back to top | Tablatures and chords are parodies/interpretations of the original songs. You may use it for private study, scholarship, research or language learning purposes only