» » »

Kamikazee, Wo-oh Tabs (ver.2)

Artists:  A B C D E F G H I J K L M N O P Q R S T U V W X Y Z # 

Wo-oh Tabs (ver.2)

Kamikazee Tabs
 Rating:
4/5 (4 votes)
Wo-oh lessons Tabs too difficult? Try these video lessons and learn fast
1
                Song Title:    Wo-oh
Artist/ Band:  Kamikazee
Album/Year:    Romantico (2012)

-------------------------------------------------------------------------------------


INTRO: A-D (8x)

|-------------------|
|-------------------|
|-------------------| 4x
|-7-7-7-7-7-7-7-777-|
|-7-7-7-7-7-7-5-555-|
|-5-5-5-5-5-5-------|

|-------------------|
|-------------------|
|-------------------| 4x
|-77777777777-7-777-|
|-77777777777-5-555-|
|-55555555555-------|


VERSE 1: A-D (8x)

|-------------------|
|-------------------|
|-------------------|
|-77777777777-7-777-|
|-77777777777-5-555-|
|-55555555555-------|
  ***********


REFRAIN: E-D (4x)

|--------------------|
|--------------------|
|--------------------|
|-9-99-9-99-7-77-777-|
|-7-77-7-77-5-55-555-|
|--------------------|


CHORUS: A-D (4x)

|-------------------|
|-------------------|
|-------------------|
|-77777777777-7-777-|
|-77777777777-5-555-|
|-55555555555-------|


VERSE 1: A-D (8x)

|-------------------|
|-------------------|
|-------------------| 4x
|-77777777777-7-777-|
|-77777777777-5-555-|
|-55555555555-------|
  ***********

|-------------------|
|-------------------|
|-------------------| 4x
|-77777777777-7-777-|
|-77777777777-5-555-|
|-55555555555-------|


REPEAT REFRAIN AND CHORUS


BRIDGE: F#m-E-D-A-F#m-E-D
        F#m-E-D-A-F#m-E-D-E

|-------------------------------------------------------------------------|
|-------------------------------------------------------------------------|
|-------------------------------------------------------------------------|
|-4-4-444-2-222-222-7-7-777-----------4-4-444-2-222-222-7-77-777-7-77-777-|
|-4-4-444-2-222-222-5-5-555-7-777-777-4-4-444-2-222-222-5-55-555-5-55-555-|
|-2-2-222-0-000-000---------5-555-555-2-2-222-0-000-000-------------------|

|------------------------------------------------------------------------------------------|
|------------------------------------------------------------------------------------------|
|------------------------------------------------------------------------------------------|
|-4-4-444-2-222-222-7-7-777-----------4-4-444-2-222-222-7-77-777-7-77-777-9999999999999999-|
|-4-4-444-2-222-222-5-5-555-7-777-777-4-4-444-2-222-222-5-55-555-5-55-555-7777777777777777-|
|-2-2-222-0-000-000---------5-555-555-2-2-222-0-000-000------------------------------------|


INTERLUDE: A-F#m-D-A-E-D

|-----------------------------------------------------------------|
|-----------------------------------------------------------------|
|-----------------------------------------------------------------|
|-77777777777777-44444444-7777777-77777777777777-99999999-7777777-|
|-77777777777777-44444444-5555555-77777777777777-77777777-5555555-|
|-55555555555555-22222222---------55555555555555------------------|


ADLIB: A-F#m-D-A-E-D

|-------------------------|
|-------------------------|
|-6-7-9-7~-6-7-4~-6-4-2~~-| 3x
|-------------------------|
|-------------------------|
|-------------------------|

|-------------------------------|
|-------------------------------|
|-6-7-9-7~-6-7-4~-6-4-2~-4br2~~-|
|-------------------------------|
|-------------------------------|
|-------------------------------|


VERSE 3: A-D (4x)

|-------------------|
|-------------------|
|-------------------|
|-77777777777-7-777-|
|-77777777777-5-555-|
|-55555555555-------|


REPEAT CHORUS (2x)


~ - vibrato/let ring
* - palm-mute
br - bend/release

------------------------------------------------------------------------------------------

SenthyX Zone
Senthyx Band 
            
Submit corrections

comments powered by Disqus
↑ Back to top | Kamikazee Tabs for Wo-oh. Lyrics for acoustic guitar and electric guitar. 1 Tablatures and chords are parodies/interpretations of the original songs. You may use it for private study, scholarship, research or language learning purposes only