» » »

Kamikazee, Ung Tagalog Tabs (ver.2)

Artists:  A B C D E F G H I J K L M N O P Q R S T U V W X Y Z # 

Ung Tagalog Tabs (ver.2)

Kamikazee Tabs
 Rating:
4/5 (4 votes)
Ung Tagalog lessons Tabs too difficult? Try these video lessons and learn fast
1
                
Well, this is my first attempt at tabbing a song for 
others.  That's all... Deeeehhhh!!

Tuning: Standard

Intro:
E-----------------------------------------------
B-----------------------------------------------
G---9---------6-6-------------------------------      x2
D---9---9-9---6-6---6-6---7-7---6-6---7-7---9999
A---7---9-9---4-4---6-6---7-7---6-6---7-7---9999
E-------7-7---------4-4---5-5---4-4---5-5---7777


Verses:

-------------------------------------
-------------------------------------
---9--------6------------------------      x2
---9-x8-----6-x8-----7-------9-------
---7--------4--------7-x8----9-x9----
---------------------5-------7-------

-------------------------------------------------
-------------------------------------------------
---9---------6-6---------------------------------     x2
---9---9-9---6-6---6-6---7-7---6-6---7-7---9999--
---7---9-9---4-4---6-6---7-7---6-6---7-7---9999--
-------7-7---------4-4---5-5---4-4---5-5---7777--

--------------------------------
--------------------------------
---9------6---------------------    x2
---9-x8---6-x8---7------9-------
---7------4------7-x8---9-x11---
-----------------5------7-------

Chorus:

--------------------------------
--------------------------------
----9------------4--------------    x4
----9-5---7------4-x5---9-------
----7-----7-x5---6------9-x5----
----------5-------------7-------

--------------------------------------
--------------------------------------
---9--------6-------------------------      x2
---9-x8-----6-x8-----7--------9-------
---7--------4--------7-x8-----9-x9----
---------------------5--------7-------

Bridge:

------------------------------------------------------
----------------------------------------------------
-----9-------9------9------9------9------9------9------    x3
-------9-------9------9------9------9------9------9----
---7------ 7--------------------0------0---------------
------------------9------9--------------------7---------

(palm mute for the first round)
--------------------------------------
--------------------------------------
---9--------6-------------------------     x3
---9-x8-----6-x8-----7--------9-------
---7--------4--------7-x8-----9-x8----
---------------------5--------7-------

-----------------------
-----------------------
---9--4-6--------------      x2
---9--4-6--6-7--7-5----
---7--2-4--6-7--5-5----
-----------4-5--5-7----

(Then back to chorus)

After the 2nd chorus (palm mute for the first 2 rounds)

-----------------------------------------------
-----------------------------------------------
---9---------6-6-------------------------------      x3
---9---9-9---6-6---6-6---7-7---6-6---7-7---9999
---7---9-9---4-4---6-6---7-7---6-6---7-7---9999
-------7-7---------4-4---5-5---4-4---5-5---7777

then

-----------------------------------------------
-----------------------------------------------
---9---------6-6-------------------------------     
---9---9-9---6-6---6-6---7----6----4----9------
---7---9-9---4-4---6-6---7----6----4----9------
-------7-7---------4-4---5----4----2----7------

-------------------------------------
-------------------------------------
---9--------6------------------------      x4
---9-x8-----6-x8-----7-------9-------
---7--------4--------7-x8----9-x9----
---------------------5-------7-------

------
------
---9--
---9--
---7--
------
            
Submit corrections

comments powered by Disqus
↑ Back to top | Kamikazee Tabs for Ung Tagalog. Lyrics for acoustic guitar and electric guitar. 1 Tablatures and chords are parodies/interpretations of the original songs. You may use it for private study, scholarship, research or language learning purposes only