» » »

Kamikazee, Martyr Nyebera Tabs (ver.1)

Artists:  A B C D E F G H I J K L M N O P Q R S T U V W X Y Z # 

Martyr Nyebera Tabs (ver.1)

Kamikazee Tabs
Rating:
0/5 (0 votes)
Martyr Nyebera lessons Tabs too difficult? Try these video lessons and learn fast
                
		“umm.. indi pko maciadong cgurado sa mga lead
		 parts nito peo ok nman cia.. bwahahaha!!! T_T..
		 auz.. para to sayo.. lagi mo kong niaaway eh..
		 T_T..”
Intro

Both Guitars
 |------------------------------------------------------------|
 |------------------------------------------------------------|
 |-----------------7----6--------6---7-7-7-6---7-7-7---9-9-9--|
 |--7----2--x-x-x--7----6-x-x-x--x---x-x-x-x---x-x-x---x-x-x--|  X2
 |--7----2--x-x-x--5----4-x-x-x--4-\-5-5-5-4-\-5-5-5-\-7-7-7--|
 |--5----0--x-x-x---------x-x-x-------------------------------|
Intro2

Guitar1
 |-------------------------------------------------------|
 |-------------------------------------------------------|
 |-----------------------7--7--7--7--7---9--9--9--9--9---|
 |--7--7--7--7--7--7--7--7--7--7--7--7---9--9--9--9--9---| X2
 |--7--7--7--7--7--7--7--5--5--5--5--5---7--7--7--7--7---|
 |--5--5--5--5--5--5--5----------------------------------|

Guitar2
 |--------------------------------------------------------|
 |--------------------------------------------------------|
 |--6----7-\-9-7-6----7-\-9-7-6-7-6-7---------------------|
 |----7------------7-------------------7-9-9-\-11-9-7-9---|
 |--------------------------------------------------------|
 |--------------------------------------------------------|

 |---------------------------------------------------------|
 |---------------------------------------------------------|
 |--6----7-\-9-7-6----7-\-9-7-6-7-6-7----------------------|
 |----7------------7-------------------7-9-9-\-11-9-7-9-7--|
 |---------------------------------------------------------|
 |---------------------------------------------------------|

Verse

Guitar1 P.M.
 |-------------------------------------------------------|
 |-------------------------------------------------------|
 |-----------------------7--7--7--7--7---9--9--9--9--9---|
 |--7--7--7--7--7--7--7--7--7--7--7--7---9--9--9--9--9---| X4
 |--7--7--7--7--7--7--7--5--5--5--5--5---7--7--7--7--7---|
 |--5--5--5--5--5--5--5----------------------------------|

Guitar2 enters in 3rd round
 |---------------------------------------|
 |---------------------------------------|
 |--9-9-9-9-9-9-9-9-9-9-9-9-9-9-9-9-9-9--|
 |--x-x-x-x-x-x-x-x-x-x-x-x-x-x-x-x-x-x--|
 |--7-7-7-7-7-7-7-7-7-7-7-7-7-7-7-7-7-7--|
 |---------------------------------------|

Both Guitars
 |--------------------------------|
 |--------------------------------|
 |----------------------------7---|
 |---4-4-4-4-----2-2-2-2------7---|
 |---4-4-4-4-----2-2-2-2------5---|
 |---2-2-2-2-----0-0-0-0----------|

Chorus

Both Guitars
 |-------------------------------------------------|
 |-------------------------------------------------|
 |-------------9-9-9-9-9---6-6-6-6-6---7-7-7-7-7---|
 |--7-7-7-7-7--9-9-9-9-9---6-6-6-6-6---7-7-7-7-7---| X2
 |--7-7-7-7-7--7-7-7-7-7---4-4-4-4-4---5-5-5-5-5---|
 |--5-5-5-5-5--------------------------------------|

Guitar2 enters in 2nd round
 |--------------------------------------------------------------|
 |--------------------------------------------------------------|
 |------------9-9-9-9-9--6-6-6-6-6--7-6---7--6--7---6---7--6----|
 |-7-7-7-7-7--9-9-9-9-9--6-6-6-6-6--x-x---x--x--x---x---x--x----|
 |-7-7-7-7-7--7-7-7-7-7--4-4-4-4-4--5-4-\-5--4-\-5--4-\-5=-4----|
 |-5-5-5-5-5----------------------------------------------------|

Repeat Chorus 2X
Repeat Intro

Verse2

Guitar1 P.M.
 |-------------------------------------------------------|
 |-------------------------------------------------------|
 |-----------------------7--7--7--7--7---9--9--9--9--9---|
 |--7--7--7--7--7--7--7--7--7--7--7--7---9--9--9--9--9---| X4
 |--7--7--7--7--7--7--7--5--5--5--5--5---7--7--7--7--7---|
 |--5--5--5--5--5--5--5----------------------------------|

Guitar2
 |-----------------------------------------------|
 |-------------------------------------10-9-10---|
 |----9-7-6h7---9-7-6h7---9-7-6h7--9-------------|
 |--7---------7---------7------------7-----------| X2
 |-----------------------------------------------|
 |-----------------------------------------------|

 |---------------------------------------------|
 |---------------------------------------------|
 |-14-14-14-14---13-13-13-13--11-11---9--9-----|
 |--x--x--x--x---x--x--x--x----x--x---x--x-----| X2
 |-12-12-12-12---11-11-11-11---9--9---7--7-----|
 |---------------------------------------------|

Both Guitars
 |--------------------------------|
 |--------------------------------|
 |----------------------------7---|
 |---4-4-4-4-----2-2-2-2------7---|
 |---4-4-4-4-----2-2-2-2------5---|
 |---2-2-2-2-----0-0-0-0----------|


Repeat Chorus 2X

Bridge

Guitar1
 |--------------------------------------------------|
 |--------------------------------------------------|
 |--------------9-9-9-9-9---6-6-6-6-6---7-7-7-7-7---|
 |--7-7-7-7-7---9-9-9-9-9---6-6-6-6-6---7-7-7-7-7---| X4
 |--7-7-7-7-7---7-7-7-7-7---4-4-4-4-4---5-5-5-5-5---|
 |--5-5-5-5-5---------------------------------------|

 |---------------------------------------|
 |---------------------------------------|
 |----------------------------7-7-7-7----|
 |---4-4-4-4-----2-2-2-2------7-7-7-7----| X2
 |---4-4-4-4-----2-2-2-2------5-5-5-5----|
 |---2-2-2-2-----0-0-0-0-----------------|

Guitar2 [Lead]
 |----------------------------------------------------|
 |-10x4-9x4-----10x2-9x2---10x2-9x2-----10x2-9x2------|
 |----------9x4---------9x2---------9x2----------9x4--|
 |----------------------------------------------------| X2
 |----------------------------------------------------|
 |----------------------------------------------------|

 |-----------------------------------|
 |-10-----12----10-----12-----10-12--|
 |----9-9----99----9-9----9-9--------|
 |-----------------------------------| x4
 |-----------------------------------|
 |-----------------------------------|

 |-------------------------9-9-------------------------|
 |--9h10x6-9-9-10-10-12-12------12-12-10-10-9-9-10-----|
 |--------------------------------------------------9--|
 |-----------------------------------------------------|
 |-----------------------------------------------------|
 |-----------------------------------------------------|

 |------------------------------|
 |-10x8-9x43-10x3-12x3-10-9-10--|
 |------------------------------|
 |------------------------------|
 |------------------------------|
 |------------------------------|

Bridge 2 Acoustic [ A – E – C#m – D ]

Guitar2 PM
 |-------------------------------------|
 |-10-----12----10-----12-----10-9-----|
 |---9-9----99----9-9----9-9-----------|
 |-------------------------------------| x4
 |-------------------------------------|
 |-------------------------------------|

Bridge3

Both Guitars
 |---------------------------------|
 |---------------------------------|
 |-6-6-6-4-4-4---------------------|
 |-6-6-6-4-4-4-6-6-6-7-7-6-6-7-7---|
 |-4-4-4-2-2-2-6-6-6-7-7-6-6-7-7---|
 |-------------4-4-4-5-5-4-4-5-5---|

 |----------------------------------|
 |----------------------------------|
 |----------------------------------|
 |-6-6-6-7-7-7-9-9-9-7-7-7-6-6-7-7--|
 |-6-6-6-7-7-7-9-9-9-7-7-7-6-6-7-7--|
 |-4-4-4-5-5-5-7-7-7-5-5-5-4-4-5-5--|

 |---------------------------------|
 |---------------------------------|
 |-6-6-6-4-4-4---------------------|
 |-6-6-6-4-4-4-6-6-6-7-7-6-6-7-7---|
 |-4-4-4-2-2-2-6-6-6-7-7-6-6-7-7---|
 |-------------4-4-4-5-5-4-4-5-5---|

 |------------------|
 |------------------|
 |-6-6-6------------|
 |-6-6-6--7-7-7-9---|
 |-4-4-4--7-7-7-9---|
 |--------5-5-5-7---|

Repeat Chorus

Lyrics

Kinukumpleto mo ang araw ko
Sa tuwing inaaway mo
Paggising sa umga mukha mo ang nakita
Wala pang nagawa nakasimangot na
At pagsapit ng gabi
Naku lalaong lumalaki
Ang gusto lambingan ngunit may unan na
namamagitan

Ang almusal ay sigawan
Ang hapunan natin ay tampuhan
Ang meryenda pagdududa
Pero mahal kita
Wala ng hahanapin pang iba
Handa akong magtiis
Kahit na away away away nato!

Nahuli lang ng ilang minuto din na kikibo
Natrapik lang sa kanto
Di naman gwapo
Naicip mo agad ngchicks ako
Simple lang naman ang pinagmulan
Pinahaba ang usapan
Di naman kailnagan
Mahabang away nanaman

Kahit na sabihin na naliligo ka sa sampal
Di mo masasabi na hindi kita minamahal
Andami mong babae, wala ka pang trabaho
Ngunit kahit ganon ay nanadito lang ako
Nandito lang ako..
            

comments powered by Disqus
↑ Back to top | Kamikazee Tabs for Martyr Nyebera. Lyrics for acoustic guitar and electric guitar. Tablatures and chords are parodies/interpretations of the original songs. You may use it for private study, scholarship, research or language learning purposes only