>
 >
Huling Sayaw

Huling Sayaw Guitar Tabs

Kamikazee - Huling Sayaw chords, tabs, tablatures, lyrics

Guitar lessons | Add/correct | Request | Top 50 tabs Artists:  A B C D E F G H I J K L M N O P Q R S T U V W X Y Z 0-9

Huling Sayaw Guitar Tabs – Kamikazee

CD, Sheet music, Poster

Do you like Huling Sayaw? Share with your friends now
Bass TabsChordsChords v2Chords v3Chords v4Chords v5Chords v6TabsTabs v2Tabs v3Tabs v4Ukulele
Song Title:   Huling Sayaw
Band/ Artist: Kamikazee Ft. Kyla


----------------------------------------------------------------------------------------

INTRO: E-F#m-A-C#m-E-A (2x)

Guitar 1: 

|----------------------------------------------------------------------------|
|----------------------------------------------------------------------------|
|----------------------------------------------------------------------------|
|-222222222-44444444-7777777777777777-666666666-6/999999999-7777777777777777-|
|-222222222-44444444-7777777777777777-444444444-4/777777777-7777777777777777-|
|-000000000-22222222-5555555555555555-----------------------5555555555555555-|

Guitar 2:

|---------------------------------------------------------------------------------------------|
|---------------------------------------------------------------------------------------------|
|---------------------------------------------------------------------------------------------|
|-222222222-44444444-7777777777777777-666666666-6/999999999-777777777-------------------------|
|-222222222-44444444-7777777777777777-444444444-4/777777777-777777777-***********************-|
|-000000000-22222222-5555555555555555-----------------------555555555-***********************-|
                                                                     |______pickslide_______|

|---------------------------------------------------------------------------------|
|----------------------------------14----------14----------14----------14---------|
|-13131313131313/1414141414141414-(14)-141414-(14)-141414-(14)-141414-(14)-141414-|
|-xxxxxxxxxxxxxxxxxxxxxxxxxxxxxxx------xxxxxx------xxxxxx------xxxxxx------xxxxxx-|
|-11111111111111/1212121212121212-------------------------------------------------|
|---------------------------------------------------------------------------------|

|------------------------------------------------------------------|
|------------------------------------------------------------------|
|-13131313131313/1414141414141414-16161616161616161616161616161616-|
|-xxxxxxxxxxxxxxxxxxxxxxxxxxxxxxx-xxxxxxxxxxxxxxxxxxxxxxxxxxxxxxxx-|
|-11111111111111/1212121212121212-14141414141414141414141414141414-|
|------------------------------------------------------------------|


VERSE 1: C#m-(E)-B-A (4x)

Guitar 1: 

|--------------------------------------|
|--------------------------------------|
|--------------------------------------|
|-6-6-666-9-4-4-444-2-2-2222-2-2-22222-|
|-4-4-444-7-2-2-222-0-0-0000-0-0-00000-|
|--------------------------------------|

Guitar 2:

  C#m      (E) B         A            (E)
|--------------------------------------------------|
|---5-------5---4----4-----2------2------5----5----|
|-6-6---6-----4-4------4-2-2--4-----4--4---4----4~-|
|-6-6-6---6---4-4--4-----2-2----2------------------|
|--------------------------------------------------|
|--------------------------------------------------|


REFRAIN: A --

Guitar 1: (palm-muted)

|-------------------------------------------------------------------------------------|
|-------------------------------------------------------------------------------------|
|---------------------------------------------------------------------------------2~~-|
|-2---2---222222222-4444-7---7---7---7---7---7---7----6----2---2---222222222-4444-2~~-|
|-0-0---0----------------7-7---7---7---7---7---7----7---7--0-0---0----------------0~~-|
|-------------------------------------------------------------------------------------|

Guitar 2:
|------------------------------------------------------------------|
|---2---2---2---2---2---4---4------5---5---5---5---5---5---4---4---|
|-2---2---2---2---2---2---2---2/4----4---4---4---4---4---4---4---4-|
|------------------------------------------------------------------|
|------------------------------------------------------------------|
|------------------------------------------------------------------|

|---------------------------------------------------------------<12>~~-|
|-2---2---2---2---2---2---4---4------5~~----(5)---(5)----(5)~----------|
|---2---2---2---2---2---2---2---2/4--4~~-(4)---(4)----(4)--------------|
|----------------------------------------------------------------------|
|----------------------------------------------------------------------|
|----------------------------------------------------------------------|



CHORUS: E-F#m-A-C#m-E-A (2x)

Guitar 1:

|----------------------------------------------------------------------------|
|----------------------------------------------------------------------------|
|----------------------------------------------------------------------------|
|-222222222-44444444-7777777777777777-666666666-6/999999999-7777777777777777-|
|-222222222-44444444-7777777777777777-444444444-4/777777777-7777777777777777-|
|-000000000-22222222-5555555555555555-----------------------5555555555555555-|

Guitar 2:

|-----------------------------------------------------------------------------------------------|
|-----------------------------------------------------------------------------------------------|
|-----------------------------------------------------------------------------------------------|
|-999999999-111111111111111-7777777777777777-666666666-6/999999999-777777777--------------------|
|-777777777-9-9-9-9-9-9-9-9-7777777777777777-444444444-4/777777777-777777777-******************-|
|---------------------------5555555555555555-----------------------555555555-******************-|
                                                                            |____pickslide____|

|---------------------------------------------------------------------------------|
|----------------------------------14----------14----------14----------14---------|
|-13131313131313/1414141414141414-(14)-141414-(14)-141414-(14)-141414-(14)-141414-|
|-xxxxxxxxxxxxxxxxxxxxxxxxxxxxxxx------xxxxxx------xxxxxx------xxxxxx------xxxxxx-|
|-11111111111111/1212121212121212-------------------------------------------------|
|---------------------------------------------------------------------------------|

|------------------------------------------------------------------|
|------------------------------------------------------------------|
|-13131313131313/1414141414141414-16161616161616161616161616161616-|
|-xxxxxxxxxxxxxxxxxxxxxxxxxxxxxxx-xxxxxxxxxxxxxxxxxxxxxxxxxxxxxxxx-|
|-11111111111111/1212121212121212-14141414141414141414141414141414-|
|------------------------------------------------------------------|


VERSE 2: REPEAT VERSE 1


REFRAIN: A --

Guitar 1: (palm-muted)

|-------------------------------------------------------------------------------------|
|-------------------------------------------------------------------------------------|
|---------------------------------------------------------------------------------2~~-|
|-2---2---222222222-4444-7---7---7---7---7---7---7----6----2---2---222222222-4444-2~~-|
|-0-0---0----------------7-7---7---7---7---7---7----7---7--0-0---0----------------0~~-|
|-------------------------------------------------------------------------------------|

Guitar 2:

|------------------------------------------------------------------|
|---2---2---2---2---2---4---4------5---5---5---5---5---5---4---4---|
|-2---2---2---2---2---2---2---2/4----4---4---4---4---4---4---4---4-|
|------------------------------------------------------------------|
|------------------------------------------------------------------|
|------------------------------------------------------------------|

|--------------------------------------------------------------------------------|
|-2--2---2---2---2---2---4---4------5~~----(5)---(5)----(5)~---------------------|
|--2---2---2---2---2---2---2---2/4--4~~-(4)---(4)----(4)-------------------------|
|--------------------------------------------------------------------------------|
|-------------------------------------------------------------******************-|
|-------------------------------------------------------------******************-|
                                                             |____pickslide____|


REPEAT CHORUS


BRIDGE: C#m-A

Guitar 1:

|-----------------------------------------------------------------------------|
|-----------------------------------------------------------------------------|
|-----------------------------------------------------------------------------|
|-6666666666666-----6666666666666-----6666666666666-----6666666666666-----6~~-|
|-4444444444444-000-4444444444444-000-4444444444444-000-4444444444444-000-4~~-|
|---------------000---------------000---------------000---------------000-----|

Guitar 2:

|-----------------------------------------|
|-----------------------------------------|
|-----------------------------------------|
|-6666666666666-----6666666666666-----6~~-|
|-4444444444444-000-4444444444444-000-4~~-|
|---------------000---------------000-----|


ADLIB: C#m-A

Guitar 1:

|-------------------------------------------------------------------------|
|-------------------------------------------------------------------------|
|-------------------------------------------------------------------------|
|-6666666666666-222-6666666666666-222-6666666666666-222-6666666666666-222-| 2x
|-4444444444444-000-4444444444444-000-4444444444444-000-4444444444444-000-|
|---------------000---------------000---------------000---------------000-|

Guitar 2:

|-------------------------------------------------------------------------------------------|
|-------------------------------------------------------------9/12---12--12--12---12/14-14~-|
|-6-8-8/9-999-8-6~-6-8-8/9-9-9-8-----------------------------------11--11--99---9-----------|
|--------------------------------6~-666-6-9-6-9-6-9-6-9/11-11~------------------------------|
|-------------------------------------------------------------------------------------------|
|-------------------------------------------------------------------------------------------|

|----------------------------|
|-14~~~----16~~~----14~~~~~~-|
|-16b~~----18b~~----16b~~~~~-| bilisan nyo na lang strumming nyo dito, tsaka pwedeng
|----------------------------| mag tremolo picking na lang sa last part..
|----------------------------|
|----------------------------|


CHORUS: E-F#m-A-C#m-E-A (2x)

Guitar 1: (palm-muted)

|----------------------------------------------------------------------------|
|----------------------------------------------------------------------------|
|----------------------------------------------------------------------------|
|-222222222-44444444-7777777777777777-666666666-6/999999999-7777777777777777-| 2x
|-222222222-44444444-7777777777777777-444444444-4/777777777-7777777777777777-|
|-000000000-22222222-5555555555555555-----------------------5555555555555555-|

Guitar 2: (kaya't sabay tayong bibitaw...)

|-----------------------------------------------------------------------------------------|
|-----------------------------------------------------------------------------------------|
|-----9--------9--------9------9~-------9--------9----------------------------------------|
|-------9~-------9~-------9~~-----9~-------9~-------9~------------------------------------|
|-----------9~-------0~-----------------------7~--------7-777777777777-******************-|
|-0~----------------------------------9-----------------5-555555555555-******************-|

Guitar 1:

|----------------------------------------------------------------------------|
|----------------------------------------------------------------------------|
|----------------------------------------------------------------------------|
|-222222222-44444444-7777777777777777-666666666-6/999999999-7777777777777777-| 2x
|-222222222-44444444-7777777777777777-444444444-4/777777777-7777777777777777-|
|-000000000-22222222-5555555555555555-----------------------5555555555555555-|

Guitar 2: (octave lang)

|------------------------------------------------------------|
|------------------------------------------------------------|
|-999999999-111111111111111-14141414141414141414141414141414-|
|-xxxxxxxxx-xxxxxxxxxxxxxxx-xxxxxxxxxxxxxxxxxxxxxxxxxxxxxxxx-|
|-777777777-9-9-9-9-9-9-9-9-12121212121212121212121212121212-|
|------------------------------------------------------------|

|--------------------------------------------------------|
|--------------------------------------------------------|
|-666666666-6/999999999-14141414141414141414141414141414-|
|-xxxxxxxxx-x-xxxxxxxxx-xxxxxxxxxxxxxxxxxxxxxxxxxxxxxxxx-|
|-444444444-4/777777777-12121212121212121212121212121212-|
|--------------------------------------------------------|

|---------------------------------------------------------------------------------|
|----------------------------------14----------14----------14----------14---------|
|-13131313131313/1414141414141414-(14)-141414-(14)-141414-(14)-141414-(14)-141414-|
|-xxxxxxxxxxxxxxxxxxxxxxxxxxxxxxx------xxxxxx------xxxxxx------xxxxxx------xxxxxx-|
|-11111111111111/1212121212121212-------------------------------------------------|
|---------------------------------------------------------------------------------|

|------------------------------------------------------------------|
|------------------------------------------------------------------|
|-13131313131313/1414141414141414-16161616161616161616161616161616-|
|-xxxxxxxxxxxxxxxxxxxxxxxxxxxxxxx-xxxxxxxxxxxxxxxxxxxxxxxxxxxxxxxx-|
|-11111111111111/1212121212121212-14141414141414141414141414141414-|
|------------------------------------------------------------------|


OUTRO: C#m-A

Guitar 1:

|-----------------|
|-----------------|
|-----------------|
|-6666666666666---|
|-4444444444444-0-|
|---------------0-|

Guitar 1:

|---------------------------------------------------------------------------|
|---------------------------------------------------------------------------|
|---------------------------------------------------------------------------|
|-6666666666666-----6666666666666-----6666666666666-----6666666666666-------|
|-4444444444444-000-4444444444444-000-4444444444444-000-4444444444444-000~~-|
|---------------000---------------000---------------000---------------000~~-|

Guitar 2:

|---------------------------------------------------------------------------|
|---------------------------------------------------------------------------|
|-6666666666666-----6666666666666-----6666666666666-----6666666666666-------|
|-xxxxxxxxxxxxx-----xxxxxxxxxxxxx-----xxxxxxxxxxxxx-----xxxxxxxxxxxxx-------|
|-4444444444444-000-4444444444444-000-4444444444444-000-4444444444444-000~~-|
|---------------000---------------000---------------000---------------000~~-|



/ - slide up
b - bend
~ - vibrato
x - dead note
* - pickslide
() - volume down
<> - natural harmonics

-----------------------------------------------------------------------------------------------

> Senthyx Zone
> Senthyx Band





Comments


Popular Kamikazee tabs & chords
420 Tabs
Alay 1 Tabs
Narda 5 Tabs
Paano 1 Tabs
Paano Intro Tabs
Petix Intro 1 Tabs
Sana Kahit Minsan 3 Tabs
Aids Ukulele
Narda Ukulele
Sana Kahit Minsan Ukulele


Song lyrics



↑ Back to top | Tablatures and chords are parodies/interpretations of the original songs. You may use it for private study, scholarship, research or language learning purposes only
© 2014 AZChords.com Contact us | Privacy policy | DMCA | Add/correct tabs | Request tabs | Top 50 tabs