» » »

Kamikazee, Girlfriend Bass tabs (ver.2)

Artists:  A B C D E F G H I J K L M N O P Q R S T U V W X Y Z # 

Girlfriend Bass tabs (ver.2)

Kamikazee Tabs
 Rating:
4/5 (4 votes)
Girlfriend lessons Tabs too difficult? Try these video lessons and learn fast
1
                Band: Kamikazee


Intro I:
G|------|------|
D|------|------|
A|------|------|
E|-55-x-|-55-x-|


Intro II:
G|--------------------------------------|
D|--------------------------------------|
A|--55555555-44444444-------------------|
E|--------------------77777777-55555555-|

G|--------------------------------------|
D|--------------------------------------|
A|--55555555-44444444-------------------|
E|--------------------77777777-55555555-|


Verse I:
G|--------------------------------------|
D|--------------------------------------|
A|--55555555-44444444-------------------|
E|--------------------77777777-55555555-|
    ........ ........ ........ ........

G|--------------------------------------|
D|--------------------------------------|
A|--55555555-44444444-------------------|
E|--------------------77777777-55555555-|

G|--------------------------------------|
D|--------------------------------------|
A|--55555555-44444444-------------------|
E|--------------------77777777-55555555-|
    ........ ........ ........ ........

G|--------------------------------------|
D|--------------------------------------|
A|--55555555-44444444-------------------|
E|--------------------77777777-55555555-|


Repeat Intro II and Verse I


Chorus:
G|--------------------------------------|
D|--------------------------------------|
A|--55555555-44444444-------------------|
E|--------------------77777777-55555555-|


Bridge I:
G|-----|-----|-----|-----|
D|-----|-----|-----|-----|
A|-5~--|-----|-----|-----|
E|-----|-3~--|-7~--|-5~--|


Bridge II:
G|-----|-----|-----|-----|-----|-----|
D|-----|-----|-----|-----|-----|-----|
A|-5~--|-----|-2~--|-0~--|-2~--|-0~--|
E|-----|-3~--|-----|-----|-----|-----|

G|-----|-----|-----|-----|-----|-----|
D|-----|-----|-----|-----|-----|-----|
A|-5~--|-----|-2~--|-0~--|-2~--|-0~--|
E|-----|-3~--|-----|-----|-----|-----|


Bridge III:
G|-------------------------------------|
D|-------------------------------------|
A|-55555555----------------------------|
E|----------33333333-77777777-55555555-|
   ........ ........ ........ ........


Chorus II:
G|-------------------------------------|
D|-------------------------------------|
A|-55555555----------------------------|
E|----------33333333-77777777-55555555-|


Outro:
G|-----|-----|-----|-----|-----|-----|
D|-----|-----|-----|-----|-----|-----|
A|-5~--|-----|-2~--|-0~--|-2~--|-0~--|
E|-----|-3~--|-----|-----|-----|-----|

G|------|
D|------|
A|-5~~--|
E|------|
            
Submit corrections

comments powered by Disqus
↑ Back to top | Kamikazee Bass for Girlfriend. Lyrics for acoustic guitar and electric guitar. 1 Tablatures and chords are parodies/interpretations of the original songs. You may use it for private study, scholarship, research or language learning purposes only