» » »

Kamikazee, Director's Cut Tabs (ver.3)

Artists:  A B C D E F G H I J K L M N O P Q R S T U V W X Y Z # 

Director's Cut Tabs (ver.3)

Kamikazee Tabs
 Rating:
4/5 (4 votes)
Director's Cut lessons Tabs too difficult? Try these video lessons and learn fast
1
                

	"e2 n ang song para sa mga taong iniwan, ginamet at pinag3pan..
	 ginawa ko tong tab na to para sa mga taong walang pera at
	 walang kwenta.. sa mga inutil at sutil..  hehe.. joke lang.."

Intro1

Guitar2
 |--------------------------------------------|
 |-----------10-/-9----------10-/-9-----------|
 |----9-8--------------9-8-------------8-9----|
 |--9-----9----------9-----9---------9-----9--| X2
 |--------------------------------------------|
 |--------------------------------------------|

Intro2

Both Guitars
 |---------------------------------------------------|
 |---------------------------------------------------|
 |-------------9---9---8---6---4---2-2-2-2--4-4-4-4--|
 |---2--2------9---9---8---6---4---2-2-2-2--4-4-4-4--| X4
 |---2--2------7---7-/-6-/-4-/-2-/-0-0-0-2--2-2-2-2--|
 |---0--0--------------------------------------------|

Guitar 2 Enters in 3rd round
 |--------------------------------------------------------|
 |----------------------------------9---9--9-9-10-9-------|
 |------------13--13--11--9---4---11--11-11---------11----|
 |--2--2------x---x---x---x---x------------------------9--|
 |--2--2------11--11-/-9-/-7-/-6--------------------------|
 |--0--0--------------------------------------------------|

 |---------------------------------------------------------------------|
 |---------------------------12-10-9---------12-10-9---9-10-9----------|
 |-------13--13--11---9---4----------9-11-9----------11--------11------|
 |-2--2--x----x---x---x--x------------------------------------------9--|
 |-2--2--11--11-/-9-/-7-/-6--------------------------------------------|
 |-0--0----------------------------------------------------------------|

Verse

Guitar1
 |---------------------------------------------------------------|
 |---------------------------------------------------------------|
 |--9-9-9-9-9-9-9-9-9----6-6-6-6--4-4-4-4--2-2-2-2-2--4-4-4-4-4--|
 |--9-9-9-9-9-9-9-9-9----6-6-6-6--4-4-4-4--2-2-2-2-2--4-4-4-4-4--| X2
 |--7-7-7-7-7-7-7-7-7----4-4-4-4--2-2-2-2--0-0-0-0-0--2-2-2-2-2--|
 |---------------------------------------------------------------|

Guitar2
 |----------------------------------7-------------------------|
 |-----------10-/-9----------10-/-9---10-9-7---------10-/-9---|
 |----9-8--------------9-8--------------------9-8-------------|
 |--9-----9----------9-----9-----------------9-----9----------|
 |------------------------------------------------------------|
 |------------------------------------------------------------|

 |------------------------------|
 |-----------10-/-9-------------|
 |----9-8--------------9-8------|
 |--9-----9----------9-----9----|
 |------------------------------|
 |------------------------------|

 |----------------------------------------|
 |----------------------------------------|
 |----9-8------8--------9-8-------8-------|
 |--9-----9-11---11-9-------9-11----11-9--| X2
 |----------------------------------------|
 |----------------------------------------|

Interlude
 |---------------------------------------------------------|
 |-----------------------10-/-9----------10-/-9------------|
 |----------------9-8--------------9-8-------------8-9-----|
 |---2----------9-----9----------9-----9---------9-----9---|
 |---2-----------------------------------------------------|
 |---0-----------------------------------------------------|

Both Guitars
 |----------------------------------------------------|
 |----------------------------------------------------|
 |-------------9---9---8---6---4---2-2-2-2--4-4-4-4---|
 |---2--2------9---9---8---6---4---2-2-2-2--4-4-4-4---| X2
 |---2--2------7---7-/-6-/-4-/-2-/-0-0-0-2--2-2-2-2---|
 |---0--0---------------------------------------------|

Guitar2 Enters in 2nd round
 |------------------------------------------------------------------|
 |-----------------------------12-10-9-------12-10-9---9-10-9-------|
 |--------13--13--11--9---4----------9-11-9--------11---------11----|
 |--2--2---x--x---x---x---x--------------------------------------9--|
 |--2--2--11--11-/-9-/-7-/-6----------------------------------------|
 |--0--0------------------------------------------------------------|

Repeat Verse

Refrain

Both Guitars
 |-------------------------------------------|
 |-------------------------------------------|
 |--6-6-6-6-6-6-6-6--------------------------|
 |--6-6-6-6-6-6-6-6--7-7---7-7---7-7---7-7---| X2
 |--4-4-4-4-4-4-4-4--7-7---7-7---7-7---7-7---|
 |-------------------5-5---5-5---5-5---5-5---|

Guitar2 enters in 2nd round
 |-------------------------------------------------|
 |-------------------------------------------------|
 |--6-6-6-6-6-\-8-8-\-9----------------------------|
 |--x-x-x-x-x---x-x---x----7-7---7-7---7-7---7-7---|
 |--4-4-4-4-4-\-6-6-\-7----7-7---7-7---7-7---7-7---|
 |-------------------------5-5---5-5---5-5---5-5---|

Both Guitars
 |--------------------------------------------------|
 |--------------------------------------------------|
 |--6-6-6-6-6-6------------------6-6-6-6-6-6----4---|
 |--6-6-6-6-6-6----7-7-7-7-7-7---6-6-6-6-6-6----4---|
 |--4-4-4-4-4-4----7-7-7-7-7-7---4-4-4-4-4-4----2---|
 |-----------------5-5-5-5-5-5----------------------|

Chorus

Both Guitars
 |-------------------------------------------------------|
 |-------------------------------------------------------|
 |--9-9-9-9-9-9---------------6-6-6-6-6-6--4-4-4-4-4-4---|
 |--9-9-9-9-9-9--7-7-7-7-7-7--6-6-6-6-6-6--4-4-4-4-4-4---| X2
 |--7-7-7-7-7-7--7-7-7-7-7-7--4-4-4-4-4-4--2-2-2-2-2-2---|
 |---------------5-5-5-5-5-5-----------------------------|

Bridge

Guitar1
 |----------------------------------------------------|
 |----------------------------------------------------|
 |----9-8---9-8---9-8---9-8---9-8---9-8---9-8---9-8---|
 |----------------------------------------------------| X2
 |--7-----7------0-----0------------------------------|
 |--------------------------9-----9------7----7-------|

Guitar2
 |---------------------------------------|
 |--12--12--12--12--10--10--10--10--12---|
 |----9---9---9---9---9---9--9---9-------|
 |---------------------------------------| X2
 |---------------------------------------|
 |---------------------------------------|

Drum Roll!!

 |-----------------------|
 |-----------------------|
 |-----------------------|
 |---x--x--x--x--x--x----|
 |---x--x--x--x--x--x----|
 |---x--x--x--x--x--x----|

Repeat Refrain
Repeat Chorus

Lyrics

Pagmulat ng mata agad kong naalala
Kagabe sinabi mo ayaw mo na
May mali ka bang nakita may mali bang nagawa
Bigla na lang naisip mo ayaw mo na

Lahat ng gusto mo tamang sunod ako
Nagtataka bakit biglang ayaw mo na
Binigla mo ng lubusan nang ako'y iyong iwanan
Isang iglap naisip mong ayaw mo na

Lumingon sandali lang
Bago mo tuluyang iwan
Nais kong..

Sumigaw..
Palabas..
At sasabihin sa iyo ang lahat
Tumakbo..
Palayo..
At iiwanan ang alaala mo

Nanginginig nalulungkot
Nahihibang at tulala
Pagod na yata ang ngiti nauubos din ang tuwa
Nagiisa umiiyak
Nahihirapang huminga
Pagod na yata ang ngiti nauubos din ang tuwa
Nanginginig nalulungkot

At kung hindi nababaliw
Sana sa paggising ay wala na ang nadaramang sakit
At kung hindi nababliw
Ipipilit sa sarili na hindi ako nagkamali
            
Submit corrections

comments powered by Disqus
↑ Back to top | Kamikazee Tabs for Director's Cut. Lyrics for acoustic guitar and electric guitar. 1 Tablatures and chords are parodies/interpretations of the original songs. You may use it for private study, scholarship, research or language learning purposes only