>
 >
I Predict A Riot 2

I Predict A Riot 2 Guitar Tabs

Kaiser Chiefs - I Predict A Riot 2 chords, tabs, tablatures, lyrics

Guitar lessons | Add/correct | Request | Top 50 tabs Artists:  A B C D E F G H I J K L M N O P Q R S T U V W X Y Z 0-9

I Predict A Riot 2 Guitar Tabs – Kaiser Chiefs

CD, Sheet music, Poster

Do you like I Predict A Riot 2? Share with your friends now
Bass TabsBass Tabs v2Bass Tabs v3Bass Tabs v4Bass Tabs v5ChordsChords v2Chords v3Chords v4TabsTabs v2Tabs v3Tabs v4Tabs v5Tabs v6UkuleleUkulele v2
Band:  Kaiser Chiefs

Copyright (c)  (B-Unique) (2005)
Version 1.0 - (14/12/05)



.  - palm mute           /  - slide up to
\  - slide down to       ~  - vibrato
h  - hammer on           b  - Bend 
pb - Pre bend
p  - pull off            Suffixes for bend
t  - tap                 f  - full bend    h - half bend
ph - pinched harmonic    q  - quarter bend t - tap bend
*  - see comment         ^  - Hold bend    r release bend
~  - vibrato bend
,  - slight palm mute    () - ghost note, sustained note
"  - tremolo note        <> - Trill
x  - muffled strings

Tunning E A D G B E
 
 Intro

 With delay and reverb

E-------------|
B-pb5r\4-/8b--|
G-------------|
D-------------|
A-------------|
E-------------|

  Main guitar riff

  Guitar 1
E[-------------------------------------------------------------------|
B[-------------------------------------------------------------------|
G[-------------------------------------------------------------------|
D[-----------------------------------6---(6)---6-6\5-5-5-5-5-5-5-5\--|
A[-3---(3)---/6-\5-\3---(3)---/6-\5----------------------------------|
E[-------------------------------------------------------------------|
 [Guitar 2 With delay and reverb
 [                     ~~~~~~~~~~~~~~~~~~~~~~~~~~~~~~~~~~~~~~~~~~~~
E[-------------------------------------------------------------------|
B[-------------------------------------------------------------------|
G[---------------------10b---------r\6--b----------10b---------------|
D[-------------------------------------------------------------------|
A[-------------------------------------------------------------------|
E[-------------------------------------------------------------------|

  Guitar 1
E[-------------------------------------|
B[-------------------------------------|
G[-------------------------------------|
D[-3---(3)--3-3\1---(1)---0--(0)-------|
A[-------------------------------------|
E[-------------------------------------|
 [Guitar 2 With delay and reverb
 [  ~~~~~~~~~~~~~~~~~~~~~~~~~~~~~~~~
E[--------------16---------------------|
B[------------------------15-------\---|
G[-12b---------------------------------|
D[-------------------------------------|
A[-------------------------------------|
E[-------------------------------------|

  Guitar 1
E[-------------------------------------------------------------------|
B[-------------------------------------------------------------------|
G[-------------------------------------------------------------------|
D[-----------------------------------6---(6)---6-6\5-5-5-5-5-5-5-5\--|
A[-3---(3)---/6-\5-\3---(3)---/6-\5----------------------------------|
E[-------------------------------------------------------------------|
 [Guitar 2 With delay and reverb
 [                             ~~~~~~~~~~~~~~~~~~~~~~~~~~~~~~~~~~~~~~
E[-------------------------------------------------------------------|
B[-------------------------------------------------------------------|
G[-----------------------------8br7br12b-----r-----11b-----r---------|
D[-------------------------------------------------------------------|
A[-------------------------------------------------------------------|
E[-------------------------------------------------------------------|

  Guitar 1
E[------------------------------------|
B[------------------------------------|
G[------------------------------------|
D[-3---(3)--3-3\1---(1)---0--(0)------|
A[------------------------------------|
E[------------------------------------|
 [Guitar 2 With delay and reverb
 [  ~~~~~~~~~~~~~~~~~~~~~~~~~~~~~~~~
E[------------------------------------|
B[------------------------------------|
G[-\-\-\-SLOW PICK SCRAPE-------------|
D[--\-\-\-----------------------------|
A[------------------------------------|
E[------------------------------------|


 Verse

  Oh watching.....       ..leary        ...it's not very...

E------------------------------------------------------------|
B------------------------------------------------------------|
G------------------------------------------------------------|
D------------------------------------------------------------|
A-3----------(3)----------\1------(1)------------------------|
E------------------------------------------1------(1)--------|

 ..tell thee..           ..scary         ..either               
E------------------------------------------------------------|
B------------------------------------------------------------|
G------------------------------------------------------------|
D------------------------------------------------------------|
A-3----------(3)----------\1------(1)------------------------|
E------------------------------------------1------(1)--------|

 Rpt above pattern

 Bridge

  La la la la...etc
E--------------------------------------------------|
B--------------------------------------------------|
G--------------------------------------------------|
D--------------------------------------------------|
A-3---(3)---3-2---(2)---2-1---(1)---1-3---(3)------|
E-------------------------------------1---(1)---1--|

  La la la la...etc
E---------------------------------------------------------------|
B---------------------------------------------------------------|
G---------------------------------------------------------------|
D---------------------------------------------------------------|
A-3---(3)---3-2---(2)---2-1---(1)---1-3-x-3-3-x-3-3-x-3-3--(3)--|
E-------------------------------------1-x-1-1-x-1-1-x-1-1--(1)--|

 Chorus

  I predict a riot      I predict a riot
E--------------------------------------------------------------------|
B--------------------------------------------------------------------|
G-5-5-----5--5-----5--5-6--6--6--6\-5-5-----5--5-----5--5-6--6--6--6-|
D-6-6-----6--6-----6--6-6--6--6--6\-6-6-----6--6-----6--6-6--6--6--6-|
A-6-6--x--6--6--x--6--6-4--4--4--4\-6-6--x--6--6--x--6--6-4--4--4--4-|
E-4-4--x--4--4--x--4--4-------------4-4--x--4--4--x--4--4------------|
                                                              Rpt

 Rpt Verse
 Rpt Chorus

 Mid 8

  anybody left in here...       ..doesn't want out...
E-----------------------------------------------------|
B-----------------------------------------------------|
G-----------------------------------------------------|
D-----------------------------------------------------|
A-5-----(5)------\3-----(3)------\1------(1)----------|
E-----------------------------------------------------|

..there..
E---------------------------------------------|
B---------------------------------------------|
G---------------------------------------------|
D-6-x-6-6-x-6--6-x-6-6--6-x-6-6-x-6--6-x-6-6--|
A-6-x-6-6-x-6--6-x-6-6--6-x-6-6-x-6--6-x-6-6--|
E-4-x-4-4-x-4--4-x-4-4--4-x-4-4-x-4--4-x-4-4--|

 Interlude

E-------------------------------------------------------------------|
B-------------------------------------------------------------------|
G-------------------------------------------------------------------|
D-------------------------------------------------------------------|
A-3-3-3-3-3-3-3-3/6-6-6-6\5-5-5-5\3-3-3-3-3-3-3-3/6-6-6-6\5-5-5-5---|
E-------------------------------------------------------------------|

E-------------------------------------------------------------------|
B-------------------------------------------------------------------|
G-------------------------------------------------------------------|
D-6-6-6-6-6-6-6-6\5-5-5-5-5-5-5-5\3-3-3-3-3-3-3-3\1-1-1-1-0-0-0-0---|
A-------------------------------------------------------------------|
E-------------------------------------------------------------------|
                                                           Rpt

 Rpt Verse
 Rpt Bridge
        Wooooooaaaaah..etc.....
E---------------------------------------------|
B---------------------------------------------|
G---------------------------------------------|
D---------------------------------------------|
A-3-x-3-3-x-3--3-x-3-3--3-x-3-3-x-3--3-x-3-3--|
E-1-x-1-1-x-1--1-x-1-1--1-x-1-1-x-1--1-x-1-1--| Rpt

 Rpt Chorus
 Rpt Mid 8
 Rpt Chorus


END





Comments


Popular Kaiser Chiefs tabs & chords
Modern Way 3 Bass Tabs
Time Honoured Tradition 2 Bass Tabs
Heat Dies Down Tabs
I Can Do It Without You Tabs
I Predict A Riot 1 Tabs
Learnt My Lesson Well Intro Tabs
Modern Way Tabs
Ruby Intro Tabs
Angry Mob Ukulele
Heat Dies Down Ukulele


Song lyrics



↑ Back to top | Tablatures and chords are parodies/interpretations of the original songs. You may use it for private study, scholarship, research or language learning purposes only
© 2014 AZChords.com Contact us | Privacy policy | DMCA | Add/correct tabs | Request tabs | Top 50 tabs