» » »

Kaiser Chiefs, I Predict A Riot Bass tabs (ver.2)

Artists:  A B C D E F G H I J K L M N O P Q R S T U V W X Y Z # 

I Predict A Riot Bass tabs (ver.2)

Kaiser Chiefs Tabs
Rating:
4/5 (13 votes)
I Predict A Riot lessons Tabs too difficult? Try these video lessons and learn fast
                I Predict a Riot by the Kaiser Chiefs


Normal tuning (EADG)

Key
33	=  play these notes twice as fast
—	=  hold on this note for longer

Order

Intro part 1 x1 
Intro part 2 x1
(Do this twice)
Verse x4
Pre-Chorus x1
Chorus x2
Verse x4
Pre-Chorus x1
Chorus x2
Bridge x1
Intro Part 1 x1
Intro part 2 x1
(Do this twice or for the second time you can play Part 1 twice)
Pause
Alternative Pre-Chorus x1
Chorus x2
Alternative Bridge x1
Alternative Chorus x4
End x1



Intro Part 1
E---------------------------------|
A-3-3-3-3-3-3-3-3-6-6-6-6-5-5-5-5-|
D---------------------------------|
G---------------------------------|

Intro Part 2
E-----------------------------------------------------------------------------------------|
A-3-3-3-3-3-3-3-3-6-6-6-6-5-5-5-5---------------------------------------------------------|
D-----------------------------------------6-6-6-6-6-6-6-6-5-5-5-5-5-5-5-5-3-3-3-3-3-3-3-3-|
G-----------------------------------------------------------------------------------------|

Verse
E---------------------|
A-3-33-3-33-6-66-8-88-|
D---------------------|
G---------------------|

Pre-Chorus
E----------------1-1---------------1-1-1-1-|
A-3-3-2-2-1-1-----3-3-2-2-1-1-----------|
D---------------------------------------------|
G---------------------------------------------|

Chorus
E-4-44-44------4-44-44--------|
A-----------4-4---------3-4-6-|
D-----------------------------|
G-----------------------------|

Alternate Pre-Chorus
E----------------1-1---------------1-1-1-1-1-1-1-1-1-1-1-1-1-1-1-1-|
A-3-3-2-2-1-1---------3-3-2-2-1-1----------------------------------|
D------------------------------------------------------------------|
G------------------------------------------------------------------|

Bridge
E--------4—|
A-5—3—1—---|
D----------|
G----------|

Alternative Bridge
E-------4—|
A-5—3—1—--|
D---------|
G---------|

Alternative Chorus 
E-4-44-44-------|
A-----------4-4-|
D---------------|
G---------------|

End
E---|
A-4-|
D---|
G---|
            
Submit corrections

comments powered by Disqus
↑ Back to top | Kaiser Chiefs Bass for I Predict A Riot. Lyrics for acoustic guitar and electric guitar. Tablatures and chords are parodies/interpretations of the original songs. You may use it for private study, scholarship, research or language learning purposes only