» » »

Kaiser Chiefs, I Predict A Riot Tabs (ver.1)

Artists:  A B C D E F G H I J K L M N O P Q R S T U V W X Y Z # 

I Predict A Riot Tabs (ver.1)

Kaiser Chiefs Tabs
Rating:
4/5 (17 votes)
I Predict A Riot lessons Tabs too difficult? Try these video lessons and learn fast
                Kaiser Chiefs - I Predict a Riot


Intro
-----

E [-------------------------------------------]
B [-------------------------------------------]
G [-------------------------------------------]
D [-----------------6-6p5---5s3---3s1---1p0---]
A [-3--/6-5-3--/6-5---------------------------]
E [-------------------------------------------]


Verse
-----

E [-----------------]
B [-----------------]
G [-----------------]
D [-----------------]
A [-3-----1----/8---]
E [-----------------]


Bridge
------

  (---------repeat---------)
E [----------------------------------------------------------------------]
B [----------------------------------------------------------------------]
G [----------------------------------------------------------------------]
D [----------------------------------------------------------------------]
A [-3---3-2----2-1---1---------------------------------------------------]
E [--------------------1---1-1---1-1---1--1--1---1---1-1---1-1---1--1--1-]


Chorus
------

E [-4---4-4---4-4---------------4---4-4---4-4---4--4--4-]
B [-4---4-4---4-4---6---6-6-6---4---4-4---4-4---4--4--4-]
G [-5---5-5---5-5---6---6-6-6---5---5-5---5-5---5--5--5-]
D [-6---6-6---6-6---6---6-6-6---6---6-6---6-6---6--6--6-]
A [-6---6-6---6-6---4---4-4-4---6---6-6---6-6---6--6--6-]
E [-4---4-4---4-4---------------4---4-4---4-4---4--4--4-]


And if theres anybody...

E [------------------------]
B [------------------------]
G [-7----7\5-----5\3-------]
D [-7----7\5-----5\3-----6-]
A [-5----5\3-----3\1-----6-]
E [----------------------4-]

E [-----------------------------------------------------------------]
B [-----------------------------------------------------------------]
G [-5-5-5-5-5-5-5-5-8-8-8-8-7-7-7-7-5-5-5-5-5-5-5-5-8-8-8-8-7-7-7-7-]
D [-5-5-5-5-5-5-5-5-8-8-8-8-7-7-7-7-5-5-5-5-5-5-5-5-8-8-8-8-7-7-7-7-]
A [-3-3-3-3-3-3-3-3-6-6-6-6-5-5-5-5-3-3-3-3-3-3-3-3-6-6-6-6-5-5-5-5-]
E [-----------------------------------------------------------------]

E [-------------------------------------------------------------------------]
B [-------------------------------------------------------------------------]
G [-13-13-13-13-13-13-13-13-12-12-12-12-12-12-12-12-10-10-10-10-10-10-10-10-]
D [-13-13-13-13-13-13-13-13-12-12-12-12-12-12-12-12-10-10-10-10-10-10-10-10-]
A [-11-11-11-11-11-11-11-11-10-10-10-10-10-10-10-10--8--8--8--8--8--8--8--8-]
E [-------------------------------------------------------------------------]

E [-------------------]
B [-------------------]
G [-8-8-8-8-7-7-7-7-5-]
D [-8-8-8-8-7-7-7-7-5-]
A [-6-6-6-6-5-5-5-5-3-]
E [-------------------]
            

comments powered by Disqus
↑ Back to top | Kaiser Chiefs Tabs for I Predict A Riot. Lyrics for acoustic guitar and electric guitar. Tablatures and chords are parodies/interpretations of the original songs. You may use it for private study, scholarship, research or language learning purposes only