>
 >
I Predict A Riot

I Predict A Riot Bass Tabs

Kaiser Chiefs - I Predict A Riot chords, tabs, tablatures, lyrics

Guitar lessons | Add/correct | Request | Top 50 tabs Artists:  A B C D E F G H I J K L M N O P Q R S T U V W X Y Z 0-9

I Predict A Riot Bass Tabs – Kaiser Chiefs

CD, Sheet music, Poster

Do you like I Predict A Riot? Share with your friends now
Bass TabsBass Tabs v2Bass Tabs v3Bass Tabs v4Bass Tabs v5ChordsChords v2Chords v3Chords v4TabsTabs v2Tabs v3Tabs v4Tabs v5Tabs v6UkuleleUkulele v2
This is a big one. It's my first tab and took forever so go easy, but I'm fairly sure its perfect.

STANDARD TUNING E A D G

INTRO

G--------------------------|
D--------------------------|
A-3-3-3-3-6-6-6-6-5-5-5-5--| x2
E--------------------------|

G---------------------------10-----10--10---------|
D-------------------------------------------------|
A-11-11-11-11-10-10-10-10-8----8-8----8---6-6-5-5-|
E-------------------------------------------------|

G---------------------------------|
D---------------------------------|
A-3-3-3-3-3-3-3-3-6-6-6-6-5-5-5-5-|
E---------------------------------|

G-------------------------------------------------|
D-------------------------------------------------|
A-11-11-11-11-11-11-11-11-10-10-10-10-10-10-10-10-|
E-------------------------------------------------|

G---------------------------------|
D---------------------------------|
A-8-8-8-8-8-8-8-8-6-6-6-6-5-5-5-5-|
E---------------------------------|

VERSE (WATCHING THE PEOPLE GET LAIRY...)

G---------------------------5-|
D-----------------------------|
A-3-3-3-3-3-3-3-3-3-3-3-3-3---|
E-----------------------------|

G-8-8-8-7-5-10-10-10-10-8-7-------12-12-12--|
D---------------------------10-10-----------|
A-------------------------------------------|
E-------------------------------------------|

G-10-10-8-8-7-5-7-8---10-10-10-10-----|
D-------------------8------------10---|
A-----------------------------------8-|
E-------------------------------------|

G--0-5------|
D-----------|
A-3---3-1-3-|
E-----------|

G----------------|
D-------------1--|
A-3-3-1--3-3-3-3-|
E----------------|

G-----------------------------|
D-----------------------------|
A-6-6-6-6-5-6-8-8-5-8-8-8-5---|
E---------------------------8-|

G-----------------------------|
D-----------------------------|
A-------------------------5-6-|
E-8-8-6-8-8-8-8-8-6-8-8-8-----|

G---------------------------|
D---------------------------|
A-6-5-5-6-5-8-8-6-8-8-8-6---|
E-------------------------8-|

PRE CHORUS (AAH-AAH-AH-AH...)

G-------------|
D-------------|
A-3~--2~--1~--|
E-------------|

G--------------------------------------|
D--------------------------------------|
A--0-1-3-5-----------------------------|
E-1--------8-8-8-8-8-7-7-7-7-7-6-6-6-6-|

G-----10-10-8-10-----10-10-10-|
D-----------------------------|
A-8-8------------8-8----------|
E-----------------------------|

CHORUS (I PREDICT A RIOT...)

G-----------------------|
D-----------------------|
A-------6-----4-4-------|
E-4-4-4---4-4-----8-6-8-|

G----------5-5-6-8---|
D--------------------|
A------6-------------|
E-4-4-4--4---------4-|

G-----------------------|
D-----------------------|
A-------6-----4-4-------|
E-4-4-4---4-4-----8-6-8-|

G------------5-5-5-6-8---|
D----------6-------------|
A------------------------|
E-4-4-4-4-4------------8-|

VERSE (I TRIED TO GET TO MY TAXI...)

G--------------8--8----|
D-------6-8-10--10--10-|
A-3-3-3----------------|
E----------------------|

G-10-10-8-10-10-8-7-5-|
D---------------------|
A---------------------|
E---------------------|

G-5-5-5-12-|
D----------|
A----------|
E----------|

G-10-10-8-8-7-5-7-8---10-10-10-10-----|
D-------------------8------------10---|
A-----------------------------------8-|
E-------------------------------------|

G------------------------------------------|
D------------------------------------------|
A-3-1-1-3-1-3-3-1-3-3-3-5-6-6-6-6----------|
E---------------------------------6-6-8-10-|

G-----------------------------|
D-----------------------------|
A-8-8-6-8-8-8-6---------------|
E---------------8-8-8-8-8-8-6-|

G---------------------------|
D---------------------------|
A-6-6-6-5-6-8-8-6-8-8-8-6---|
E-------------------------8-|

PRE CHORUS (AAH-AAH-AH-AH...)

G-------------------------------------|
D-------------------------------------|
A-------------------------------------|
E-8-8-8-8-8-8-7-7-7-7-7-7-6-6-6-6-6-6-|

G--------------------------------------|
D--------------------------------------|
A--0-1-3-5-----------------------------|
E-1--------8-8-8-8-8-7-7-7-7-7-6-6-6-6-|

G-----10-10-8-10-----10-10-10-|
D-----------------------------|
A-8-8------------8-8----------|
E-----------------------------|

CHORUS (I PREDICT A RIOT...)

G-----------------------|
D-----------------------|
A-------6-----4-4-------|
E-4-4-4---4-4-----8-6-8-|

G----------5-5-6-8---|
D--------------------|
A------6-------------|
E-4-4-4--4---------4-|

G--------------5-5-6-8-5-|
D-----6----6--6----------|
A------6-6---------------|
E-4-4--------------------|

G------------------------------5-5-6-8-5-|
D----6-----------------------------------|
A-----6-6--4-4-3-1-3-----6-6-------------|
E-4-4-----4----------4-4----4-4----------|

AND IF THERE’S ANYBODY LEFT IN HERE…
G---------------------------|
D-----------------6---------|
A-5-5-5-5-5-----------------|
E-----------8-8-6---4-4-4-4-|

G-----8-8-------13-------------13--------|
D-6-6--------------13------------13-13---|
A---------11-11-------11-11-11--------11-|
E----------------------------------------|

G--------------------------|
D--------------------------|
A-3-3-3-3-6-6-6-6-5-5-5-5--| x2
E--------------------------|

G-------------------------------------------------|
D-------------------------------------------------|
A-11-11-11-11-11-11-11-11-10-10-10-10-10-10-10-10-|
E-------------------------------------------------|

G---------------------------------|
D---------------------------------|
A-8-8-8-8-8-8-8-8-6-6-6-6-5-5-5-5-|
E---------------------------------|

G--------------------------|
D--------------------------|
A-3-3-3-3-6-6-6-6-5-5-5-5--| x2
E--------------------------|

G-------------------------------------------------|
D-------------------------------------------------|
A-11-11-11-11-11-11-11-11-10-10-10-10-10-10-10-10-|
E-------------------------------------------------|

G---------------------------------|
D---------------------------------|
A-8-8-8-8-8-8-8-8-6-6-6-6-5-5-5-5-|
E---------------------------------|

BASS ONLY VERSE (WATCHING THE PEOPLE GET LAIRY...)

G-----/8-8-10-10-8-7---12-10-8-8-7-5-7-8-8-10---|
D-------------------10-----------------------10-|
A-----------------------------------------------|
E-8-8-------------------------------------------|

PRE CHORUS (AAH-AAH-AH-AH...)

G-------------------------------------|
D-------------------------------------|
A-------------------------------------|
E-8-8-8-8-8-8-7-7-7-7-7-7-6-6-6-6-6-6-|

G--------------------------------------|
D--------------------------------------|
A--0-1-3-5-----------------------------|
E-1--------8-8-8-8-8-7-7-7-7-7-6-6-6-6-|

G-----10-5-5---------10-5------|
D------------3------------6-6--|
A-8-8------------8-8-----------|
E------------------------------|

G--10---------10-------10-5--------10-5---|
D----10---------10----------------------8-|
A-8----8-8-8-8----8-8-8-----6-8-8-8-------|
E-----------------------------------------|

G--10-----------------------|
D----10-10------------------|
A-8-------8-8-8-8-8-8-8-8-8-|
E---------------------------|

LAST CHORUS (I PREDICT A RIOT...)

G-----------------------|
D-----------------------|
A-------6-----4-4-------|
E-4-4-4---4-4-----8-6-8-|

G----------5-5-6-8---|
D--------------------|
A------6-------------|
E-4-4-4--4---------4-|

G--------------5-5-6-8-5-|
D-----6----6--6----------|
A------6-6---------------|
E-4-4--------------------|

G------------------------------5-5-6-8-5-|
D----6-----------------------------------|
A-----6-6--4-4-3-1-3-----6-6-------------|
E-4-4-----4----------4-4----4-4----------|

G-------------|
D-------------|
A-------------|
E-4-4-4-4-4-4-|

GOOD LUCK. YOU'LL NEED IT...





Comments


Popular Kaiser Chiefs tabs & chords
Everything Is Average Nowadays 1 Bass Tabs
Coming Home Chords
Ruby 1 Chords
Thank You Very Much Chords
Born To Be A Dancer 1 Tabs
I Predict A Riot 5 Tabs
Like It Too Much 1 Tabs
What Did I Ever Give You? Tabs
Addicted To Drugs Ukulele
Learnt My Lesson Well Ukulele


Song lyrics



↑ Back to top | Tablatures and chords are parodies/interpretations of the original songs. You may use it for private study, scholarship, research or language learning purposes only
© 2014 AZChords.com Contact us | Privacy policy | DMCA | Add/correct tabs | Request tabs | Top 50 tabs