» » »

Joseph Arthur, In The Sun Tabs (ver.3)

Artists:  A B C D E F G H I J K L M N O P Q R S T U V W X Y Z # 

In The Sun Tabs (ver.3)

Joseph Arthur Tabs
 Rating:
4.8/5 (16 votes)
In The Sun lessons Tabs too difficult? Try these video lessons and learn fast
                -------------------------------------------------------------------------------
                             In The Sun - Joseph Arthur
-------------------------------------------------------------------------------

Tuning: EADGBE


e|------------------------------------------------------------------------------------|
B|-------3------3---------------------------------------------------------------------|
G|---------0------0-------------------0---0-------------------------------------------|
D|-2----------------0--------0h2--------2---2--------------0---0---------0------------|
A|-2-------------------------3-----------------0----0h2------2---2-------0------------|
E|-0------------------------------------------------3---------------0----1------------|

e|-------------------------------------------------------------------------------|
B|-------------------------------------------------------------------------------|
G|---1---1-----------------------------------------------------------------------|
D|-----0---0---------------------------------------------------------------------|
A|-------------------------------------------------------------------------------|
E|-------------------------------------------------------------------------------|
            
Submit corrections

comments powered by Disqus
↑ Back to top | Joseph Arthur Tabs for In The Sun. Lyrics for acoustic guitar and electric guitar. Tablatures and chords are parodies/interpretations of the original songs. You may use it for private study, scholarship, research or language learning purposes only