» » »

Joseph Arthur, In The Sun Bass tabs (ver.1)

Artists:  A B C D E F G H I J K L M N O P Q R S T U V W X Y Z # 

In The Sun Bass tabs (ver.1)

Joseph Arthur Tabs
 Rating:
4.2/5 (5 votes)
In The Sun lessons Tabs too difficult? Try these video lessons and learn fast
1
                A great song by a great artist.

I made this tab cause the song was easy
and there was no bass tab on this site.
So here's one for the beginners! ;)

Enjoy! :D


Intro:
I picture you in the sun wondering what went wrong...
G|-----------------T-------------------------------|
D|----------------S--------------------------------|
A|---------------E---------------------------------|
E|--------------R----------------------------------|

And falling down on your knees asking for sympathy...
G|-----------------T-------------------------------|
D|----------------S--------------------------------|
A|---------------E---------------------------------|
E|--------------R----------------------------------|

And being caught in between all you wish for and all you seen...
G|-----------------T-------------------------------|
D|----------------S--------------------------------|
A|---------------E---------------------------------|
E|--------------R----------------------------------|

And trying to find anything you can feel that you can believe in...
G|-----------------T-------------------------------|
D|----------------S--------------------------------|
A|---------------E---------------------------------|
E|--------------R----------------------------------|


Chorus:
May gods love be with you...
G|-----------------T-------------------------------|
D|----------------S--------------------------------|
A|---------------E---------------------------------|
E|--------------R----------------------------------|

Always...
G|-----------------T-------------------------------|
D|----------------S--------------------------------|
A|---------------E---------------------------------|
E|--------------R----------------------------------|

May gods love be with you...
G|-----------------T-------------------------------|
D|----------------S--------------------------------|
A|---------------E---------------------------------|
E|--------------R----------------------------------|


Verse 1:
I know I would apologize if I could see your eyes...
G|-------------------------------------------------|
D|-------------------------------------------------|
A|-------------6-----------------------------------|
E|15/3-------------------6----------5--------------|

Cause when you showed me myself I became someone else...
G|-------------------------------------------------|
D|-------------------------------------------------|
A|-------------6-----------------------------------|
E|---3-------------------6----------5--------------|

But I was caught in between all you wish for and all you need...
G|-------------------------------------------------|
D|-------------------------------------------------|
A|-------------6-----------------------------------|
E|---3-------------------6----------5--------------|

I picture you fast asleep A nightmare comes You cant keep awake...
G|-------------------------------------------------|
D|-------------------------------------------------|
A|-------------6-----------------------------------|
E|---3-------------------6----------5--------------|



Chorus:
May gods love be with you...
G|-----------------T-------------------------------|
D|----------------S--------------------------------|
A|---------------E---------------------------------|
E|--------------R----------------------------------|

Always...
G|-----------------T-------------------------------|
D|----------------S--------------------------------|
A|---------------E---------------------------------|
E|--------------R----------------------------------|

May gods love be with you...
G|-----------------T-------------------------------|
D|----------------S--------------------------------|
A|---------------E---------------------------------|
E|--------------R----------------------------------|

Always...
G|-----------------T-------------------------------|
D|----------------S--------------------------------|
A|---------------E---------------------------------|
E|--------------R----------------------------------|

May gods love be with you...
G|-----------------T-------------------------------|
D|----------------S--------------------------------|
A|---------------E---------------------------------|
E|--------------R----------------------------------|


Bridge: (I think)
Cause if I find, If I find my own way. How much will I find...
G|-------------------------------------------------|
D|-------------------------------------------------|
A|6------------------------------------------------|
E|----------------------6---------5----------------|

Cause if I find, If I find my own way. How much will I find...
G|-------------------------------------------------|
D|-------------------------------------------------|
A|6------------------------------------------------|
E|----------------------6---------5----------------|

Cause if I find, If I find my own way...
G|-------------------------------------------------|
D|-------------------------------------------------|
A|6------------------------------------------------|
E|----------------------6---------5----------------|

How much will I find...
G|-------------------------------------------------|
D|-------------------------------------------------|
A|-------------6-----------------------------------|
E|---3-------------------6----------5--------------|

How much will I find...
G|-------------------------------------------------|
D|-------------------------------------------------|
A|-------------6-----------------------------------|
E|---3-------------------6----------5--------------|


Verse 2: (Or something)
|--------------------No bass-----------------------|

I don't know anymore
What its for
I'm not even sure
If there is anyone who is in the sun
Will you help me to understand
Cause I been caught in between all I wish for and all I need
Maybe you're not even sure what its for
Any more than me


Chorus:
May gods love be with you
Always
May gods love be with you


Bridge/Verse 3: (The h*ll do i know!?)
Cause if I find, If I find my own way. How much will I find...
G|-------------------------------------------------|
D|-------------------------------------------------|
A|6------------------------------------------------|
E|----------------------6---------5----------------|

Cause if I find, If I find my own way. How much will I find...
G|-------------------------------------------------|
D|-------------------------------------------------|
A|6------------------------------------------------|
E|----------------------6---------5----------------|

Cause if I find, If I find my own way. How much will I find...
G|-------------------------------------------------|
D|-------------------------------------------------|
A|6------------------------------------------------|
E|----------------------6---------5----------------|

Cause if I find, If I find my own way.
G|-------------------------------------------------|
D|-------------------------------------------------|
A|6------------------------------------------------|
E|----------------------6---------5----------------|

How much will I find...
G|-------------------------------------------------|
D|-------------------------------------------------|
A|-------------6-----------------------------------|
E|---3-------------------6----------5--------------|

How much will I find...
G|-------------------------------------------------|
D|-------------------------------------------------|
A|-------------6-----------------------------------|
E|---3-------------------6----------5--------------|

How much will I find...
G|-------------------------------------------------|
D|-------------------------------------------------|
A|-------------6-----------------------------------|
E|---3-------------------6----------5--------------|

How much will I find...
G|-------------------------------------------------|
D|-------------------------------------------------|
A|-------------6-----------------------------------|
E|---3-------------------6----------5--------------|

Outro: (now this I'm sure of)
(no lyrics)
G|-------------------------------------------------|
D|-------------------------------------------------|
A|-------------6-----------------------------------|
E|---3-------------------6----------5--------------|

(no lyrics)
G|-------------------------------------------------|
D|-------------------------------------------------|
A|-------------6-----------------------------------|
E|---3-------------------6----------5--------------|
            
Submit corrections

comments powered by Disqus
↑ Back to top | Joseph Arthur Bass for In The Sun. Lyrics for acoustic guitar and electric guitar. 1 Tablatures and chords are parodies/interpretations of the original songs. You may use it for private study, scholarship, research or language learning purposes only