» » »

Joseph Arthur, Honey And The Moon Tabs (ver.1)

Artists:  A B C D E F G H I J K L M N O P Q R S T U V W X Y Z # 

Honey And The Moon Tabs (ver.1)

Joseph Arthur Tabs
Rating:
4/5 (10 votes)
Honey And The Moon lessons Tabs too difficult? Try these video lessons and learn fast
                 

Honey And The Moon by Joseph Arthur
===================================



This is a true to sound version of the song, more complex than the current tabs
available, but better sounding and more accurate. 

ENJOY! 

NOTE:  experiment with hammer-ons and pull-offs for a fuller sound.





[Standard Tuning]


[Capo on the 7th fret]



INTRO & VERSE 
=============

         C                 G/B             F            G

|----------------|-------------|-------------|-------------|
|--------------1-|-----------3-|-----------1-|-----------0-|
|--------------0-|-----------0-|-----------2-|-----------0-|
|---------0h2----|----0---0----|--------3----|--------0----|
|-------3--------|--2---2------|----0--------|----2--------|
|----------------|-------------|--1---1------|--3---3------|


         Am               Am               Em              Em

|-------------------|--0----------|-----------------|---------------|
|------------0h1----|-------------|---------------0-|---------------|
|------------2------|--------0h2--|---------------0-|---------------|
|-----2---2---------|------2------|-----------2-----|-------0h2p0---|
|---0---0--------0--|----0--------|----2---2--------|-----2-------3-|
|-------------------|-------------|--0---0------0---|-0-------------|





PLAY ONCE FOR INTRO, TWICE FOR EACH VERSE.







CHORUS
======

(only play bracketed notes on repeat)

 
        F              G              C             Em   

|-----------------|-------------|---------------|----------------|
|---------------1-|-----------0-|------------1--|-------------0--|
|---------------2-|-----------0-|------------0--|-------------0--|
|------------3----|--------0----|---0---0h2-----|---------0h2----| x 2
|------(0)--------|----2--------|-3---3---------|----2-----------|
|--(1)-----1------|--3---3------|---------------|--0---0---------|

          

        Am               Am

|------------------|--0-------------|
|------------0H1---|----------------|
|----------------2-|--------0H2-----|
|-----2---2--------|------2---------|  x 2
|---0---0----------|----0-----------|
|------------------|----------------|
   


        Em             Em

|----------------|------------|
|-------------0--|------------|
|-------------0--|------------|
|-----------2----|-------0H2--|  x 2
|-----2---2------|-----2------|
|---0---0--------|-0----------|
     


        G                G

|------------------|------------|
|---------------0--|------------|
|---------------0--|------------|
|-------------0----|---------0--|  x 2
|----0---0H2-------|----0H2-----|
|--3---3-----------|-0----------|
            

comments powered by Disqus
↑ Back to top | Joseph Arthur Tabs for Honey And The Moon. Lyrics for acoustic guitar and electric guitar. Tablatures and chords are parodies/interpretations of the original songs. You may use it for private study, scholarship, research or language learning purposes only