» » »

In The Sun Tabs (ver.2)

Artists:  A B C D E F G H I J K L M N O P Q R S T U V W X Y Z # 

In The Sun Tabs (ver.2)

Joseph Arthur
Rating:
4/5 (3 votes)

Hard to play? Try these video lessons and learn fast.
                This is my first tab, i hope you like it! Have fun with it. I'm pretty sure it's right. 
loooooove this song:)!

Tuning: EBGDAE capo on 3rd fret


E|---------------------------------------------------------------------------|
B|--------3--3---------------------------------------------------------------|
G|----------0--0--------------0-0-0-0---------------------0-----0------------|
D|--2--------------0---0h-2---2-0-2-0--------0----0-----------------0--------|
A|--2------------------3----------------3--2---2----2---0-----0--------------|
E|--0--------------------------------------3---3--------2-----2--------------|

           I pictured you in the sun wondering what went wrong

 E|-----------------------------------------------------------------------------|
B|--------3--3------------------------------------------------------------------|
G|----------0--0--------------0-0-0-0---------------------0-----0---------------|
D|--2--------------0---0h-2---2-0-2-0--------0----0-----------------0-----------|
A|--2------------------3----------------3--2---2----2---0-----0-----------------|
E|--0--------------------------------------3---3--------2-----2-----------------|

            And falling down on your knees asking for sympathy

E|---------------------------------------------------------------------------|
B|--------3--3---------------------------------------------------------------|
G|----------0--0--------------0-0-0-0---------------------0-----0------------|
D|--2--------------0---0h-2---2-0-2-0--------0----0-----------------0--------|
A|--2------------------3----------------3--2---2----2---0-----0--------------|
E|--0--------------------------------------3---3--------2-----2--------------|

          And being caught in between all you wish for and all you seen

E|---------------------------------------------------------------------------|
B|--------3--3---------------------------------------------------------------|
G|----------0--0--------------0-0-0-0---------------------0-----0------------|
D|--2--------------0---0h-2---2-0-2-0--------0----0-----------------0--------|
A|--2------------------3----------------3--2---2----2---0-----0--------------|
E|--0--------------------------------------3---3--------2-----2--------------|

         And trying to find anything you can feel that you can believe in

E|---------------------------------------------------------------------------|
B|--------3--3---------------------------------------------------------------|
G|----------0--0--------------0-0-0-0---------------------0-----0------------|
D|--2--------------0---0h-2---2-0-2-0--------0----0-----------------0--------|
A|--2------------------3----------------3--2---2----2---0-----0--------------|
E|--0--------------------------------------3---3--------2-----2--------------|

                             May god's love be with you              Always

E|---------------------------------------------------------------------------|
B|--------3--3---------------------------------------------------------------|
G|----------0--0--------------0-0-0-0---------------------0-----0------------|
D|--2--------------0---0h-2---2-0-2-0--------0----0-----------------0--------|
A|--2------------------3----------------3--2---2----2---0-----0--------------|
E|--0--------------------------------------3---3--------2-----2--------------|

                             May god's love be with you

E|-------3-----------------3-----------------3-----------------3-------------|
B|-------3-----------------3-----------------3-----------------3-------------|
G|-------0-----------------0-----------------0-----------------2-------------|
D|-------2-----------------2-----------------0-----------------0-------------|
A|-------2-----------------3-----------------2-----------------0-------------|
E|-------x-----------------x-----------------3-----------------2-------------|

                 I know i would apologize if i could see your eyes

E|-------3-----------------3-----------------3-----------------3-------------|
B|-------3-----------------3-----------------3-----------------3-------------|
G|-------0-----------------0-----------------0-----------------2-------------|
D|-------2-----------------2-----------------0-----------------0-------------|
A|-------2-----------------3-----------------2-----------------0-------------|
E|-------x-----------------x-----------------3-----------------2-------------|

         'Cause when you showed me myself, you know, i became someone else

E|-------3-----------------3-----------------3-----------------3-------------|
B|-------3-----------------3-----------------3-----------------3-------------|
G|-------0-----------------0-----------------0-----------------2-------------|
D|-------2-----------------2-----------------0-----------------0-------------|
A|-------2-----------------3-----------------2-----------------0-------------|
E|-------x-----------------x-----------------3-----------------2-------------|

         But i was caught in between all you wish for and all you need

E|-------3-----------------3-----------------3-----------------3-------------|
B|-------3-----------------3-----------------3-----------------3-------------|
G|-------0-----------------0-----------------0-----------------2-------------|
D|-------2-----------------2-----------------0-----------------0-------------|
A|-------2-----------------3-----------------2-----------------0-------------|
E|-------x-----------------x-----------------3-----------------2-------------|

         I pictured you fast asleep A nightmare comes You can't keep awake

E|-------3-----------------3-----------------3-----------------3-------------|
B|-------3-----------------3-----------------3-----------------3-------------|
G|-------0-----------------0-----------------0-----------------2-------------|
D|-------2-----------------2-----------------0-----------------0-------------|
A|-------2-----------------3-----------------2-----------------0-------------|
E|-------x-----------------x-----------------3-----------------2-------------|

                           May God's love be with you           Always

E|-------3-----------------3-----------------3-----------------3-------------|
B|-------3-----------------3-----------------3-----------------3-------------|
G|-------0-----------------0-----------------0-----------------2-------------|
D|-------2-----------------2-----------------0-----------------0-------------|
A|-------2-----------------3-----------------2-----------------0-------------|
E|-------x-----------------x-----------------3-----------------2-------------|

                           May God's love be with you           Always


E|-------3-----------------3-----------------3-----------------3-------------|
B|-------3-----------------3-----------------3-----------------3-------------|
G|-------0-----------------0-----------------0-----------------2-------------|
D|-------2-----------------2-----------------0-----------------0-------------|
A|-------2-----------------3-----------------2-----------------0-------------|
E|-------x-----------------x-----------------3-----------------2-------------|

                           May God's love be with you           Always


E|---------------------------------------------------------------------------|
B|--------3--3---------------------------------------------------------------|
G|----------0--0--------------0-0-0-0---------------------0-----0------------|
D|--2--------------0---0h-2---2-0-2-0--------0----0-----------------0--------|
A|--2------------------3----------------3--2---2----2---0-----0--------------|
E|--0--------------------------------------3---3--------2-----2--------------|

           I pictured you in the sun wondering what went wrong

E|---------------------------------------------------------------------------|
B|--------3--3---------------------------------------------------------------|
G|----------0--0--------------0-0-0-0---------------------0-----0------------|
D|--2--------------0---0h-2---2-0-2-0--------0----0-----------------0--------|
A|--2------------------3----------------3--2---2----2---0-----0--------------|
E|--0--------------------------------------3---3--------2-----2--------------|

            And falling down on your knees asking for sympathy

E|---------------------------------------------------------------------------|
B|--------3--3---------------------------------------------------------------|
G|----------0--0--------------0-0-0-0---------------------0-----0------------|
D|--2--------------0---0h-2---2-0-2-0--------0----0-----------------0--------|
A|--2------------------3----------------3--2---2----2---0-----0--------------|
E|--0--------------------------------------3---3--------2-----2--------------|

          And being caught in between all you wish for and all you seen

E|---------------------------------------------------------------------------|
B|--------3--3---------------------------------------------------------------|
G|----------0--0--------------0-0-0-0---------------------0-----0------------|
D|--2--------------0---0h-2---2-0-2-0--------0----0-----------------0--------|
A|--2------------------3----------------3--2---2----2---0-----0--------------|
E|--0--------------------------------------3---3--------2-----2--------------|

         And trying to find anything you can feel that you can believe in

E|---------------------------------------------------------------------------|
B|--------3--3---------------------------------------------------------------|
G|----------0--0--------------0-0-0-0---------------------0-----0------------|
D|--2--------------0---0h-2---2-0-2-0--------0----0-----------------0--------|
A|--2------------------3----------------3--2---2----2---0-----0--------------|
E|--0--------------------------------------3---3--------2-----2--------------|

                             May god's love be with you              Always

E|---------------------------------------------------------------------------|
B|--------3--3---------------------------------------------------------------|
G|----------0--0--------------0-0-0-0---------------------0-----0------------|
D|--2--------------0---0h-2---2-0-2-0--------0----0-----------------0--------|
A|--2------------------3----------------3--2---2----2---0-----0--------------|
E|--0--------------------------------------3---3--------2-----2--------------|

                             May god's love be with you

E|-------3-----------------3-----------------3-----------------3-------------|
B|-------3-----------------3-----------------3-----------------3-------------|
G|-------0-----------------0-----------------0-----------------2-------------|
D|-------2-----------------2-----------------0-----------------0-------------|
A|-------2-----------------3-----------------2-----------------0-------------|
E|-------x-----------------x-----------------3-----------------2-------------|

                 I know i would apologize if i could see your eyes

E|-------3-----------------3-----------------3-----------------3-------------|
B|-------3-----------------3-----------------3-----------------3-------------|
G|-------0-----------------0-----------------0-----------------2-------------|
D|-------2-----------------2-----------------0-----------------0-------------|
A|-------2-----------------3-----------------2-----------------0-------------|
E|-------x-----------------x-----------------3-----------------2-------------|

         'Cause when you showed me myself, you know, i became someone else

E|-------3-----------------3-----------------3-----------------3-------------|
B|-------3-----------------3-----------------3-----------------3-------------|
G|-------0-----------------0-----------------0-----------------2-------------|
D|-------2-----------------2-----------------0-----------------0-------------|
A|-------2-----------------3-----------------2-----------------0-------------|
E|-------x-----------------x-----------------3-----------------2-------------|

         But i was caught in between all you wish for and all you need

E|-------3-----------------3-----------------3-----------------3-------------|
B|-------3-----------------3-----------------3-----------------3-------------|
G|-------0-----------------0-----------------0-----------------2-------------|
D|-------2-----------------2-----------------0-----------------0-------------|
A|-------2-----------------3-----------------2-----------------0-------------|
E|-------x-----------------x-----------------3-----------------2-------------|

         I pictured you fast asleep A nightmare comes You can't keep awake

E|-------3-----------------3-----------------3-----------------3-------------|
B|-------3-----------------3-----------------3-----------------3-------------|
G|-------0-----------------0-----------------0-----------------2-------------|
D|-------2-----------------2-----------------0-----------------0-------------|
A|-------2-----------------3-----------------2-----------------0-------------|
E|-------x-----------------x-----------------3-----------------2-------------|

                           May God's love be with you           Always

E|-------3-----------------3-----------------3-----------------3-------------|
B|-------3-----------------3-----------------3-----------------3-------------|
G|-------0-----------------0-----------------0-----------------2-------------|
D|-------2-----------------2-----------------0-----------------0-------------|
A|-------2-----------------3-----------------2-----------------0-------------|
E|-------x-----------------x-----------------3-----------------2-------------|

                           May God's love be with you           Always


E|-------3-----------------3-----------------3-----------------3-------------|
B|-------3-----------------3-----------------3-----------------3-------------|
G|-------0-----------------0-----------------0-----------------2-------------|
D|-------2-----------------2-----------------0-----------------0-------------|
A|-------2-----------------3-----------------2-----------------0-------------|
E|-------x-----------------x-----------------3-----------------2-------------|

                           May God's love be with you           Always


E|-------3-----------------3-----------------3-----------------3-------------|
B|-------3-----------------3-----------------3-----------------3-------------|
G|-------0-----------------0-----------------0-----------------2-------------|
D|-------2-----------------2-----------------0-----------------0-------------|
A|-------2-----------------3-----------------2-----------------0-------------|
E|-------x-----------------x-----------------3-----------------2-------------|

                           May God's love be with you


(the first chord in this part is a little different.)

E|-------3-----------------3-----------------3-----------------3-------------|
B|-------3-----------------3-----------------3-----------------3-------------|
G|-------0-----------------0-----------------0-----------------2-------------|
D|-------2-----------------2-----------------0-----------------0-------------|
A|-------3-----------------3-----------------2-----------------0-------------|
E|-------x-----------------x-----------------3-----------------2-------------|

            Cause if i find if i find my own way how much will i find


E|-------3-----------------3-----------------3-----------------3-------------|
B|-------3-----------------3-----------------3-----------------3-------------|
G|-------0-----------------0-----------------0-----------------2-------------|
D|-------2-----------------2-----------------0-----------------0-------------|
A|-------3-----------------3-----------------2-----------------0-------------|
E|-------x-----------------x-----------------3-----------------2-------------|

             If i find if i find my own way how much will i find


E|-------3-----------------3-----------------3-----------------3-------------|
B|-------3-----------------3-----------------3-----------------3-------------|
G|-------0-----------------0-----------------0-----------------2-------------|
D|-------2-----------------2-----------------0-----------------0-------------|
A|-------3-----------------3-----------------2-----------------0-------------|
E|-------x-----------------x-----------------3-----------------2-------------|

            If i find if i find my own way how much will i find


E|-------3-----------------3-----------------3-----------------3-------------|
B|-------3-----------------3-----------------3-----------------3-------------|
G|-------0-----------------0-----------------0-----------------2-------------|
D|-------2-----------------2-----------------0-----------------0-------------|
A|-------3-----------------3-----------------2-----------------0-------------|
E|-------x-----------------x-----------------3-----------------2-------------|

            You                                 You


E|-------3-----------------3-----------------3-----------------3-------------|
B|-------3-----------------3-----------------3-----------------3-------------|
G|-------0-----------------0-----------------0-----------------2-------------|
D|-------2-----------------2-----------------0-----------------0-------------|
A|-------3-----------------3-----------------2-----------------0-------------|
E|-------x-----------------x-----------------3-----------------2-------------|

           I'll find you                        You

(then it's pretty much all the same chords through out the rest of the song.)
            
Hard to play? Try these video lessons and learn fast. | Correct




comments powered by Disqus
↑ Back to top | Tablatures and chords are parodies/interpretations of the original songs. You may use it for private study, scholarship, research or language learning purposes only